Modest Mouse - Alone Down There Chords & Tabs

 

Alone Down There Chords & Tabs

Modest Mouse Chords & Tabs

Version: 1 Type: Tab 0 ratings
1 star 2 stars 3 stars 4 stars 5 stars
comments

Alone Down There Tab

   
Band:    Modest Mouse
Song: Alone Down There Tabbed by: Jack O’Sullivan
Album: The Moon and Antarctica   I’m pretty sure that most of this is right. Fool around with it and listen to the song. This is just one of the guitars played in this song.





3~7~5   Start with your finger on the 3rd fret and slide it up to the 7th fret and over to the 5th.

Opening of song:
E------7------7---------------------3------5------7--------------------------------------------- Repeat through part 
A---------9-------9---10---0--------------------------------------------------------------------while singer is talking
D-------------------------------------------------------------------------------------------------
G-------------------------------------------------------------------------------------------------
B-------------------------------------------------------------------------------------------------
E-------------------------------------------------------------------------------------------------
How do you, how do you do, my name is you.


E----7777777---2222222----3333333-----5555555--------------------------------------- Part right before Chorus
A------------------------------------------------------------------------------------------------
D-------------------------------------------------------------------------------------------------
G-------------------------------------------------------------------------------------------------
B-------------------------------------------------------------------------------------------------
E-------------------------------------------------------------------------------------------------
[ Tab from: http://www.guitartabs.cc/tabs/m/modest_mouse/alone_down_there_tab.html ]
(Chorus) Here are what the chords look like. Play them in order.
      Chord 1                  Chord 2          Chord 3                   Chord 4
E---7-----------------------------------------3---------------------5-----------------------------
A--------9----------------5----------------------5-----------------------7-----------------------
D------------------------------7------------------------------------------------------------------
G------------------------------------------------------------------------------------------------
B------------------------------------------------------------------------------------------------
E------------------------------------------------------------------------------------------------
Well, I don’t want you to be alone, down there to be alone, down there to be alone.


Other chords you could use for the chorus. Play them in order.

                         B-     D      G      A


Here is the solo of this song. It’s very easy to play.


E--------------------------------------------------33----55---9---------------------------------
A--555------999----555---4--5---4---2222--------------------------------------------------
D------------------------------------------------------------------------------------------------
G------------------------------------------------------------------------------------------------
B------------------------------------------------------------------------------------------------
E------------------------------------------------------------------------------------------------

Repeat

Here is the ending to the song leading out of the solo.

E----7777777---2222222---3333333-----3~7~5----------------------------------------
A-----------------------------------------------------------------------------------------------
D-----------------------------------------------------------------------------------------------
G-----------------------------------------------------------------------------------------------
B-----------------------------------------------------------------------------------------------                                             E-----------------------------------------------------------------------------------------------






Comments