Modest Mouse - 5-4-3-2-1 Lispoff Chords & Tabs

 

5-4-3-2-1 Lispoff Chords & Tabs

Modest Mouse Chords & Tabs

Version: 1 Type: Tab 0 ratings
1 star 2 stars 3 stars 4 stars 5 stars
comments

5-4-3-2-1 Lispoff Tab

   
----------------------------|
                 5-4-3-2-1--Lisp Off - Modest Mouse
----------------------------|
Tabbed by: Chris Leisz
Email: reducedfatcreamy@yahoo.com

Tuning: Standard

Album: Sad Sappy Sucker

It wasn't until after I tabbed this song, that i realized that some one had
already tabbed out this song. So this is basically the same tab as the other
one on here, though I tabbed it on the E & A strings to give it a deeper tone. It makes 
a little harder to play, but I think it sounds better.

e|---------------------------------------------------------------------------|
B|---------------------------------------------------------------------------|
G|---------------------------------------------------------------------------|
D|---------------------------------------------------------------------------|
A|----5---5---5---5---5---5---5---5---5---5---5---5---5---5---5---5----------|
E|--8---8---8---8---7---7---7---7---8---8---8---8---7---7---7---7------------|
[ Tab from: http://www.guitartabs.cc/tabs/m/modest_mouse/5_4_3_2_1_lispoff_tab.html ]
e|---------------------------------------------------------------------------|
B|---------------------------------------------------------------------------|
G|---------------------------------------------------------------------------|
D|---------------------------------------------------------------------------|
A|----5---5---5---5---5---5---5---5---5---5---5---5---5---5---5---5----------|
E|--8---8---8---8---7---7---7---7---8---8---8---8---7---7---7---7------------|

e|---------------------------------------------------------------------------|
B|---------------------------------------------------------------------------|
G|---------------------------------------------------------------------------|
D|---------------------------------------------------------------------------|
A|----5---5---5---5---5---5---5---5---5---5---5---5--------------------------|
E|--8---8---8---8---7---7---7---7---8---8---8---8---7~~~~~-------------------|

Lyrics:
whatcha do whatcha do whathca do with your own life
whatcha see whatcha see whatcha see as an astronaut, okay
whatcha eat whatcha eat whatcha eat as an alien
whatcha want whaddaya want from outer space


| /  slide up
| \  slide down
| h  hammer-on
| p  pull-off
| ~  vibrato
| +  harmonic
| x  Mute note
===============================================================================
Comments