Modest Mouse - 3rd Planet Chords & Tabs

 

3rd Planet Chords & Tabs

Modest Mouse Chords & Tabs

Version: 3 Type: Tab 1 rating
1 star 2 stars 3 stars 4 stars 5 stars
comments

3rd Planet Tab

Modest Mouse
3rd Planet
The moon & Antartica
TAB by Chris Collins

Disclaimer: This is my first tab, I've only been screwing around w/ guitar
for a year, but this should impress a few MM fans.

email: wrongturns@juno.com

Tunning: Standard

e--------------------------------[-------------------------------------3-]-----|
b--0---3---0---3---0---3---010---[-0-----01010-----01010-----01010-------]-----|
g----0---0---0---0---0---0-------[----0---------0---------0---------0----]--x2-|
d------------------------------------------------------------------------------|
a------------------------------------------------------------------------------|
E------------------------------------------------------------------------------|
[ Tab from: http://www.guitartabs.cc/tabs/m/modest_mouse/3rd_planet_tab_ver_3.html ]
e-------------------------------------------|
b--[-0---3---0---3---0---3---010-]----------|
g--[---0---0---0---0---0---0-----]-x2-------|
d-------------------------------------------|
a-------------------------------------------|
E-------------------------------------------|

e-------------------------------------------|
b--0---3---0---3---0---3---0---3---0---3----|
g----0---0---0---0---0---0---0---0---0---0--|
d-------------------------------------------|
a-------------------------------------------|
E-------------------------------------------|

e-------------------------------------------------|
b-------------------------------------------------|
g--9-9-9-9-9---9-9-9-9-9---7-7-7-7-7---7-7-7-7-7--|
d--7-7-7-7-7---7-7-7-7-7---5-5-5-5-5---5-5-5-5-5--|
a-------------------------------------------------|
E-------------------------------------------------|

-Then follows a pattern that I haven't completely figured out yet, I'll get
it in sometime soon

-Near the end is a instrumental part that doesn't involved the guitar too much

-At the end the begginning pattern is repeated
Comments