Modest Mouse - 3rd Planet Chords & Tabs

 

3rd Planet Chords & Tabs

Modest Mouse Chords & Tabs

Version: 1 Type: Tab 3 ratings
1 star 2 stars 3 stars 4 stars 5 stars
comments

3rd Planet Tab

   
this is a bad ass song and really easy to play.

-------------------------------------------------------------------
-------------------------------------------------------------------
-------------------------------------------------------------------
---9------12------9------12------9------12-----9h10p9h10p9---------
------10------10-----10------10-----10------10---------------------
-------------------------------------------------------------------


--------------------------------------------------------------------
--------------------------------------------------------------------
-----------------------------------------------------------------12-
---9------9h10--10p9--9------9h10-10p9--9------9h10-10p9--9---------
------10-----------------10----------------10----------------10-----
--------------------------------------------------------------------


--------------------------------------------------------------------
--------------------------------------------------------------------
-----------------------------------------------------------------12-
---9------9h10--10p9--9------9h10-10p9--9------9h10-10p9--9---------
------10-----------------10----------------10----------------10-----
--------------------------------------------------------------------


-------------------------------------------------------------------
-------------------------------------------------------------------
-------------------------------------------------------------------
---9------12------9------12------9------12-----9h10p9h10p9---------
------10------10-----10------10-----10------10---------------------
-------------------------------------------------------------------

Everything that keeps me togeher...             fucking people over


-------------------------------------------------------------------
-------------------------------------------------------------------
-------------------------------------------------------------------
---9------12------9------12------9------12-----9h10p9h10p9---------
------10------10-----10------10-----10------10---------------------
-------------------------------------------------------------------

My boss just quit the job...                   and he'll do it.


-------------------------------------------------------------------
-------------------------------------------------------------------
-------------------------------------------------------------------
---9------12------9------12------9------12------9------12----------
------10------10-----10------10-----10------10-----10------10------
-------------------------------------------------------------------

The third planet is sure that...


-------------------------------------------------------------------
-------------------------------------------------------------------
-------------------------------------------------------------------
---9------12------9------12------9------12------9------12----------
------10------10-----10------10-----10------10-----10------10------
-------------------------------------------------------------------

When you get to the promised land...               eye's hand.


G//// D//// C//// C////
G//// D//// C//// C////

G               D           C
Your heart felt good it was dripping pitch and made of wood
[ Tab from: http://www.guitartabs.cc/tabs/m/modest_mouse/3rd_planet_tab.html ]
G              D          C
Your hands and knees felt cold and wet on the grass to me


Chords continue until...



-------------------------------------------------------------------
-------------------------------------------------------------------
----------12-------------------------------------------------------
-------9------9------------------------------------9h10p9----------
---10----------------9h10p9---------7--9--7-----7------------------
-----------------10----------10--8-----------8---------------------


-------------------------------------------------------------------
-------------------------------------------------------------------
----------12-------------------------------------------------------
-------9------9------------------------------------9h10p9----------
---10----------------9h10p9---------7--9--7-----7------------------
-----------------10----------10--8-----------8---------------------

Well a third had just been made...      was it a daughter

-------------------------------------------------------------------
-------------------------------------------------------------------
----------12-------------------------------------------------------
-------9------9------------------------------------9h10p9----------
---10----------------9h10p9---------7--9--7-----7------------------
-----------------10----------10--8-----------8---------------------


And it occured to me that...           oceans in our bodies



Until...

G   D   D

G               D           C
Your heart felt good it was dripping pitch and made of wood

G              D          C
Your hands and knees felt cold and wet on the grass to me


This backward-sounding riff plays over the GDC part:


-------------------------------------------------------------------
-------------------------------------------------------------------
-------------------------------------------------------------------
--10--10--10--10--10--9--------------------------------------------
-------------------------11--9--11--9------------------------------
-------------------------------------------------------------------


Then...


-------------------------------------------------------------------
-------------------------------------------------------------------
-------------------------------------------------------------------
-------9--12--9------------------------------------9h10p9----------
---10----------------9h10p9---------7--9--7-----7------------------
-----------------10----------10--8-----------8---------------------

Well a third had just been made...


Until...


--------------------------------------------------------------------
--------------------------------------------------------------------
-----------------------------------------------------------------12-
---9------9h10--10p9--9------9h10-10p9--9------9h10-10p9--9---------
------10-----------------10----------------10----------------10-----
--------------------------------------------------------------------


-------------------------------------------------------------------
-------------------------------------------------------------------
-------------------------------------------------------------------
---9------12------9------12------9------12-----9h10p9h10p9---------
------10------10-----10------10-----10------10---------------------
Comments