Modern English - Melt With You Chords & Tabs

 

Melt With You Chords & Tabs

Modern English Chords & Tabs

Version: 2 Type: Tab 0 ratings
1 star 2 stars 3 stars 4 stars 5 stars
comments

Melt With You Tab

   







Submitted by: Tommy Engelhardt









Submitted
by: Tommy Engelhardt

e-mail:
engelwj@erols.com

 

Song:
Melt With You 

      by Modern English

 

Tuning:
normal, EADGBE

 

The
beginning of the verses are an easy chord progression

 

      C...F...C...F

 

Then,
when the singing starts, the guitar goes:

 

        Riff 1

 

E|----------------|------------------------------------------

 |                |

B|----------------|------------------------------------------

 |                |

G|----------------|------------------------------------------

 |                |

D|---2-------2----|-3-------3-0------------------------------

 |                |

A|-----3---3---3--|---3-0-3----------------------------------

 |                |

E|-------3--------|------------------------------------------

 

 

 

Then
that weird part in the middle ("The futures open wide") the guitar
goes

really
quickly

 

         Riff 2         

 

E|---3p2p0--3p2p0--3p2p0--3p2p0-----------------------------

 |

B|----------------------------------------------------------

 |
[ Tab from: http://www.guitartabs.cc/tabs/m/modern_english/melt_with_you_tab_ver_2.html ]
G|----------------------------------------------------------

 

 

Verse
1:

            Riff
1

Moving
foward, using all my breath

Making
love to you was never second best.

I saw
the world rushing all around your face

Never
really knowing it was always mish and lace. (?????)

 

Chorus:

 

C                                  F

I'll
stop the world and melt with you

C                                      F

You've
seen the difference and it's getting better all the time.

C                               F

There's
nothing you and I won't do

C                                  F

I'll
stop the world and melt with you.

 

Verse
2:

Dream
of better lives the kind which never hate

Trapped
in a state of imaginary grace.

I made
a pilgrimage to save this human's race

Never
comprehending the race had long gone by.

 

Chorus

 

Bridge:

 

(Riff
2) The future's open wide

 

Chorus

 

Bridge

 

 

That's
it!  Pretty easy, right?  Any questions mail to Tommy at 

 

                  engelwj@erols.com

 

 

 

 






Comments