Modern Baseball - Re-done Chords & Tabs

 

Re-done Chords & Tabs

Modern Baseball Chords & Tabs

Version: 1 Type: Tab 0 ratings
1 star 2 stars 3 stars 4 stars 5 stars
comments

Re-done Tab

-------------------------------------------------------------------------------
                             Re-Done - Modern Baseball
-------------------------------------------------------------------------------
Tab

Drop C# tuning! I got this with the help of this acoustic video:
http://www.youtube.com/watch?v=2TN9My0Imc4


These are just the chords!

"She said lets start from the top..."
|----------------------------------------------------|
|----------------------------------------------------|
|----------------------------------------------------|
|-7--4--5--4--4--------------------------------------|
|-9--5--7--5--5--------------------------------------|
|-0--0--0--0--4--------------------------------------|

guitar 2 is something arpeggiated along these lines.
Didn't really have time to figure this out but tried to help you guys out a little.
|-------------------------------------|
|---7------7-------7------------------|
|--7------7--or---7-------------------|
|-0------5-------7--------------------|
|-------------------------------------|
|-------------------------------------|

"But thats when i stopped to listen or care..."
|-----------------------------------------|
|-----------------------------------------|
|-6-----4--4--7---------------------------|
|-7--9--5--5--7---------------------------|
|-7--9--5--5--5---------------------------|
|-7--9--4--5--0---------------------------|
[ Tab from: http://www.guitartabs.cc/tabs/m/modern_baseball/re_done_tab.html ]
"...when I couldn't conjure words..."
|-----------------------------------------|
|-----------------------------------------|
|-6-----4--4--1----4----------------------|
|-7--9--5--5--2----5----------------------|
|-7--9--5--5--2----5----------------------|
|-7--9--4--5--2----5----------------------|

"...in the field of conversing correctly..."

|-----------------------------------------|
|-----------------------------------------|
|--7--7--4--4-----------------------------|
|--7--7--4--5-----------------------------|
|--5--4--2--5-----------------------------|
|--0--0--0--5-----------------------------|

"But now were down to brass tax..."
|-------------------------------------------------------------|
|-------------------------------------------------------------|
|-------------------------------------------------------------|
|-2--5--2--5---x----------------------------------------------|
|-2--5--2--5---x-strum mute strings at the end of this--------|
|-2--5--2--5---x----------------------------------------------|

*During the solo do this again and keep going for "You etched holes in my brain..."
|-----------------------------------------|
|-----------------------------------------|
|--7--7--4--4-----------------------------|
|--7--7--4--5-----------------------------|
|--5--4--2--5-----------------------------|
|--0--0--0--5-----------------------------|

"I know I'm bad with expectations..."
|-----------------------------------------|
|-----------------------------------------|
|-6-----4---------------------------------|
|-7--9--5---------------------------------|
|-7--9--5---------------------------------|
|-7--9--5---------------------------------|

"They don't think we can make this..."
|-----------------------------------------|
|-----------------------------------------|
|--8--4---7-------------------------------|               *Play this until the end
|--9--5---7-------------------------------|
|--9--5---5-------------------------------|
|--9--4---0-------------------------------|
Comments