Moby Dick - Krhinta Chords & Tabs

 

Krhinta Chords & Tabs

Moby Dick Chords & Tabs

Version: 3 Type: Tab 0 ratings
1 star 2 stars 3 stars 4 stars 5 stars
comments

Krhinta Tab

   
Moby Dick
Körhinta

gaftt@freemail.hu

g1 - Mentes Norbert
g2 - Smiedl Tamás


Intro

g1
1--------------|
2--------------|
3--------------|
4--------------|
5-1-0------3-2-|
6------0-2-----|

g2
1--------------|
2--------------|
3--------------|
4--------------|
5-1-0------3-2-|
6------0-2-----|


g1
1--------------------|
2--------------------|
3--------------------|
4--------------------|
5-2-3-2---2-3-2--5-3-|
6-0-------0----------|

g2
1--------------------|
2--------------------|
3--------------------|
4--------------------|
5-2-3-2---2-3-2--5-3-|
6-0-------0----------|


Verse

g1
1--------------------------|
2--------------------------|
3--------------------------|
4--------------------------|
5-2-2-3-2---2-----3-2--5-3-|
6-0-0-1-0-0-0-0-0----------|

g2
1--------------------------|
2--------------------------|
3--------------------------|
4--------------------------|
5-2-2-3-2---2-----3-2--5-3-|
6-0-0-1-0-0-0-0-0----------|


Pre-chorus
[ Tab from: http://www.guitartabs.cc/tabs/m/moby_dick/krhinta_tab_ver_3.html ]
g1
1-------------------------|
2-------------------------|
3-------------------------|
4---------4-4-------------|
5-4--4--4-2-2-4---4--4--5-|
6-2--2--2-----2---2--2--3-|

g2
1-------------------------|
2-------------------------|
3-------------------------|
4---------4-4-------------|
5-4--4--4-2-2-4---4--4--5-|
6-2--2--2-----2---2--2--3-|


Chorus

g1
1--------------------------|
2--------------------------|
3--------------------------|
4----9--9----7-----7--5--4-|
5----7--7----5-----5--3--2-|
6-0-------0-----0----------|

g2
1--------------------------|
2--------------------------|
3--------------------------|
4----9--9----7-----7--5--4-|
5----7--7----5-----5--3--2-|
6-0-------0-----0----------|


Pre-solo

g1
1--------------------|
2--------------------|
3--------------------|
4---4-4---4---4--7-7-|
5---2-2---2---2--5-5-|
6-0-----0---0--------|

g2
1--------------------|
2--------------------|
3--------------------|
4--------------------|
5-2--------------5-5-|
6-0--------------3-3-|
Comments