Moby - Thats When I Reach For My Revolver Chords & Tabs

 

Thats When I Reach For My Revolver Chords & Tabs

Moby Chords & Tabs

Version: 1 Type: Bass Tab 0 ratings
1 star 2 stars 3 stars 4 stars 5 stars
comments

Thats When I Reach For My Revolver Bass Tab

Moby
That's when i reach for my revolver

Transcribed by Ghislain Devliegher
Ghislaindevliegher@hotmail.com
here's my version of the song
hope u enjoy it
please rate this tab


in short this is the whole song 
   2x  1x   4x   1x  1x   6x   1x     8x
G|-----|-|-----|-----|-|-----|-----|-------|
D|-----|-|-----|-----|-|-----|-----|-------|
A|-0-3-|-|-2-46|-0-3-|-|-2-46|-0-3-|-2-46--|
E|0---0|0|--5--|0---0|0|--5--|0----|--5----|
______________________________________________________

this is the whole song again in normal tab

          1st part. 
this is played in the 1st 10 sentences
    repeat this twice         
G |-------------------|
D |-------------------|
A |-----------0-3-----|
E |-0-0-0-0-0-----0---|
[ Tab from: http://www.guitartabs.cc/tabs/m/moby/thats_when_i_reach_for_my_revolver_btab.html ]
                  3rd part. repeat 4 times
                  The 4th time, don't play the last
                  5th fret Note on the A string. But ad
                  2 more notes to the 4th fret
                   
     2nd part              3rd part play 4x
      play 1x    |"that's when i..."
G |--------------|--------------------------|
D |--------------|--------------------------|
A |--------------|2222------4444444444444-6-|
E |--000000000000|------5555----------------|


now play the 1st part once again

G |-------------------|
D |-------------------|
A |-----------0-3-----|
E |---0-0-0-0-----0---|


                 3rd part play 6 times
                 same thing with the a string,
                 but now the 6th time
                 "that's when i..."
G |--------------|--------------------------|
D |--------------|--------------------------|
A |--------------|2222------4444444444444-6-|
E |--000000000000|------5555----------------|


now play the 1st part once

G |-------------------|
D |-------------------|
A |-----------0-3-----|
E |-0-0-0-0-0-----0---|


don't play th 2nd part
play 3rd part 8 times
G |--------------------------|
D |--------------------------|
A |2222------4444444444444-6-|
E |------5555----------------|
Comments