Moby - Guitar Flute And String Chords & Tabs

 

Guitar Flute And String Chords & Tabs

Moby Chords & Tabs

Version: 3 Type: Tab 2 ratings
1 star 2 stars 3 stars 4 stars 5 stars
comments

Guitar Flute And String Tab

   
It's a combination of these chords, listen to the song to figure it out. 


Em
E||-----------------------|----------------------|----------------------|----------------------|
B||-----------------------|----------------------|----------------------|----------------------|
G||*----------------------|--0-------------------|-----------------0----|----------------------|
D||*-------2--------------|-------2--------2-----|--2-------------------|--2--------2----------|
A||-------------2---------|------------2---------|-------2--------------|-------2--------------|
E||---0--------------0----|---------------------0|------------0---------|----------------------|

[ Tab from: http://www.guitartabs.cc/tabs/m/moby/guitar_flute_and_string_tab_ver_3.html ]
D (2002xx)                                                                                  3x
----------------------|----------------------|----------------------|-----------------------||
----------------------|----------------------|----------------------|-----------------------||
----------------------|--2-------------------|-----------------2----|----------------------*||
-------0--------------|-------0--------0-----|--0-------------------|--0--------0----------*||
------------0---------|------------0---------|-------0--------------|-------0---------------||
--2--------------2----|--------------------2-|------------2---------|-----------------------||


Dm (1002xx)
----------------------|----------------------|----------------------|----------------------|
----------------------|----------------------|----------------------|----------------------|
----------------------|--2-------------------|-----------------2----|----------------------|
-------0--------------|-------0--------0-----|--0-------------------|--0---------0---------|
------------0---------|------------0---------|-------0--------------|-------0--------------|
--1--------------1----|--------------------1-|------------1---------|----------------------|


Am (x0221x)
----------------------|----------------------|----------------------|----------------------|
----------------------|--0---h1--------------|---------------0--h1--|----------------------|
-------2--------------|----------2-----2-----|--2-------------------|--2--------2----------|
------------2---------|------------2---------|-------2--------------|-------2--------------|
--0--------------0----|----------------------|-0----------0---------|----------------------|
----------------------|----------------------|----------------------|----------------------|
Comments