Miyavi - Gariben Rock Chords & Tabs

 

Gariben Rock Chords & Tabs

Miyavi Chords & Tabs

Version: 1 Type: Bass Tab 0 ratings
1 star 2 stars 3 stars 4 stars 5 stars
comments

Gariben Rock Bass Tab

   
Miyavi is a japanese artist who used to be in a band, the name of which I forget.
While he was in the band, he was a drag queen called Miyabi (Which means elegant)
and when he left he changed it to Miyavi (Which the japanese pronounce the same
anyway).  He's now taken to generally wearing goofy outfits and giving really wierd
interviews.

This might not be very accurate, but when I'm playing it sounds pretty cool anyway.
When parts are repeated they're often slightly different.  Listen out.  This is
seriously complicated guitar noise.

Part 1
G:203-------------203--------------203-------------203-----------------|
D:-----222--------------222-------------222-------------222---2--2--2--|
A:---------------------------------------------------------------------|
E:---------------------------------------------------------------------|
[ Tab from: http://www.guitartabs.cc/tabs/m/miyavi/gariben_rock_btab.html ]
Part 2
G:203-----203-----203-----203------|
D:----2222----2222----2222----2222-|
A:---------------------------------|
E:---------------------------------|

Part 3
G:--------------------------------|
D:--------------------------------|
A:-2-1-2-3-21-2-2-02-1-2-3-21-2-2-|
E:--------------------------------|

Part 4
G:--------------------------------|
D:-----------------------2--1-----|
A:02-1-2-3-21-2-2-02-1-2------2-2-|
E:--0-0-0-0--0-0-0--0-0-0-00-0-0--|

Part 5
G:--------------------------------|
D:------------------------0-------|
A:2-2-1-2-333-0-1-2-2-1-2---3-0-1-|
E:--------------------------------|

Part 6
G:22-22-22-22-22-------------------|
D:---------------23-33-33-22-22-22-|
A:---------------------------------|
E:---------------------------------|

Part 7
G:2-22-22-2210---------3--|
D:------------2333-32-----|
A:------------------------|
E:------------------------|

As far as I can tell, the parts follow in this sequence:
1 2 3 4 3 4 3 2 1 5 6 7 3 5 6
Comments