Mission - Blood Brother Chords & Tabs

 

Blood Brother Chords & Tabs

Mission Chords & Tabs

Version: 2 Type: Tab 0 ratings
1 star 2 stars 3 stars 4 stars 5 stars
comments

Blood Brother Tab

   
#----------------------------------PLEASE NOTE---------------------------------#
#This file is the author's own work and represents their interpretation of the #
#song. You may only use this file for private study, scholarship, or research. #
#------------------------------------------------------------------------------##
THE MISSION - "Blood Brother" (Incomplete)

Comments, corrections etc. welcome.

Par Svensson, t89par@student.tdb.uu.se


Riff 1:

1st guitar

e -------2-0-----------2-0-----------2-0-----------0------|
B -0-0-0-----0-0---0-------0-----0-------0-----3-----3----|
G ---------------2---2-------2-1---1-------1-2---2-----2--|
D --------------------------------------------------------|
A --------------------------------------------------------|
E --------------------------------------------------------|

2nd guitar

e ------------7-------------------------*----------------7--|
B -7-9h10r9-7---7-9h10r9-7---7-9h10r9-7---7-9h10r9-7---7----|
G -------------------------9-------------------------9------|
D ----------------------------------------------------------|
A ----------------------------------------------------------|
E ----------------------------------------------------------|
("*" is either "7" or "12")


Riff 2:

e ------------------------|
B ------------------------|
G ------------------------|
D -4-4--2-2--0-0----------|
A ----------------4-4--2--|
E ------------------------|


Riff 3:
[ Tab from: http://www.guitartabs.cc/tabs/m/mission/blood_brother_tab_ver_2.html ]
e ---2-0--------------------------------|
B -0-----0-3-2-3r2-----0-------0-3---0--|
G -----------------2-1---1-2-1-----1----|
D --------------------------------------|
A --------------------------------------|
E --------------------------------------|


Riff 1

B          A            E           Riff2
I gave you flowers, and you gave me faith
...
Chameleon, warrior, gypsy, embrace
We turn our eyes to the heart of the rising sun
G                        B       A
You and me, we are blood brothers

G                        B       A
You and me, we are blood brothers

      E
Blood brother

Riff1
Lay down your life for me
Lay down your love for me

Kissed my kiss, touched my touch
Tore the clouds apart
You took my hand and walked me through the rain
An act of love, mission and tender mercy
We stood tall and proud, together we conquered again.

You and me, we are blood brothers
You and me, we are blood brothers
Blood brother
Lay down your life for me
Lay down your love for me

... and we gave them hell
The feelings ....
...
...

And we rose again, to win the war
To ruin, reign and have the ...
..., the stars in the sky
And we'd kiss, the ever faithful ...


Riff3
Father, your a good man, an honest man, ...
And mother, I wish I could tell you I love you
Sister, you're a goddess, and I want you to take me to heaven
Blood brother, ...

You and me, we are blood brothers
You and me, we are blood brothers
Blood brother

Lay down your life for me
Blood Brother
Lay down your love for me

God, I feel so strong, but I just wanna break down and cry
Comments