Missing 23rd - Struggle Chords & Tabs

 

Struggle Chords & Tabs

Missing 23rd Chords & Tabs

Version: 1 Type: Tab 0 ratings
1 star 2 stars 3 stars 4 stars 5 stars
comments

Struggle Tab

   
http://www.themissing23rd.com/
----------------------------------------------------------------------------
			     Struggle - The Missing 23rd
----------------------------------------------------------------------------
Tabbed by:Nardcore
Email:divided_we_play@hotmail.com

Tuning:Standard
CHECK THESE GUYS OUT!
www.themissing23rd.com

Part A
e|---------------------------------------------|
B|---12--12--12---12---------------------------|
G|-----9---9---9----9--------------------------|
D|------9---9---10---10------------------------|
A|---------------------------------------------|
E|---------------------------------------------|

Part B1
e|---------------------------------------------|
B|---------------------------------------------|
G|---------------------------------------------|
D|-------2-------2-----0-----------------------|
A|-2-2-2---2-2-3---3-3---3---------------------|
E|-0-0-0---------------------------------------|
PM........................

Part B2
e|---------------------------------------------|
B|---------------------------------------------|
G|---------------------------------------------|
D|-------2-------2-----0-----------------------|
A|-2-2-2---222-3---3-3---3---------------------|
E|-0-0-0---------------------------------------|
Pm..............   ...   .
[ Tab from: http://www.guitartabs.cc/tabs/m/missing_23rd/struggle_tab.html ]
Part B3
e|---------------------------------------------|
B|-------0~~~~---------------------------------|
G|-------0~~~~---------------------------------|
D|---------------------------------------------|
A|-2-222---------------------------------------|
E|-0-000---------------------------------------|
Pm   ...  

Part C
e|---------------------------------------------|
B|---------------------------------------------|
G|--------4-xxxx-5-5-5-5-5-5-------------------|
D|-2-xxxx-4-xxxx-5-5-5-5-5-5-------------------|
A|-2-xxxx-2-xxxx-3-3-3-3-3-3-------------------|
E|-0-xxxx--------------------------------------|





Part D1
e|---------------------------------------------|
B|---------------------------------------------|
G|----9----------------------------------------|
D|-22-9--999-10101010-9999---------------------|
A|-22-7--999-10101010-9999---------------------|
E|-00----777--8-8-8-8-7777---------------------|

Part D2
e|---------------------------------------------|
B|---------------------------------------------|
G|----9------------------99--------------------|
D|-22-9--999-10101010-99-99--------------------|
A|-22-7--999-10101010-99-77--------------------|
E|-00----777--8-8-8-8-77-----------------------|

Part D3
e|---------------------------------------------|
B|---------------------------------------------|
G|-9~~~~~~~~-9---------------------------------|
D|-9~~~~~~~~--9--------------------------------|
A|-7~~~~~~~~---7-------------------------------|
E|---------------------------------------------|

Order:
Part A  x4
Part B1 x4
Part B2 x3
Part B3 x1
Part C  x4
Part A  x4
Part C  x4
Part D1 x2
Part D2 x7
Part D3 x1
Part B1 x4
Part B2 x3
Part B3 x1
Part C  x4
End on:
e|---|
B|---|
G|---|
D|-2-|
A|-2-|
E|-0-|
Comments