Missing 23rd - Knuckleheadism Chords & Tabs

 

Knuckleheadism Chords & Tabs

Missing 23rd Chords & Tabs

Version: 1 Type: Tab 0 ratings
1 star 2 stars 3 stars 4 stars 5 stars
comments

Knuckleheadism Tab

   
Nardcore
divided_we_play@hotmail.com
The Missing 23rd
Knuckleheadism
Standard

<<<=Pick Scrape
(...)=Anything Inside, natural harmonics.

Intro
e|---------------------------------------------
B|---------------------------------------------
G|---------------------------------------------
D|------------------------------2~-------------
A|-3p2p0-5p0~-3p2p0-5p0~-3p2p0-5---3p2p0-5p0~--
E|---------------------------------------------

Continued 
e|-----------|
B|-----------|
G|-----------|
D|-----------|
A|-3p2p0-5p0-|
E|-----------|

Part A
e|---------------------------------------------|
B|---------------------------------------------|
G|------5555--7--------------------------------|
D|-7777-5555--7-7-7777-------------------------|
A|-7777-3333--5-7-7777-------------------------|
E|-5555---------5-5555-------------------------|
PM                .... 

Part B
e|---------------------------------------------|
B|---------------------------------------------|
G|----------12121212-7777----------------------|
D|-44444444-12121212-7777----------------------|
A|-44444444-10101010-5555----------------------|
E|-22222222------------------------------------|
[ Tab from: http://www.guitartabs.cc/tabs/m/missing_23rd/knuckleheadism_tab.html ]
Part C1
e|---------------------------------------------|
B|---------------------------------------------|
G|-5-4-4-5-4-4-5-4-4-5-7-2---------------------|
D|-5-4-4-5-4-4-5-4-4-5-7-2-<<<<<<<-------------|
A|-3-2-2-3-2-2-3-2-2-3-5-0-<<<<<<<-------------|
E|-------------------------<<<<<<<-------------|

Part C2
e|---------------------------------------------|
B|---------------------------------------------|
G|-5-4-4-5-4-4-5-4-4-5-7-2---------------------|
D|-5-4-4-5-4-4-5-4-4-5-72-(5544556677)--------|
A|-3-2-2-3-2-2-3-2-2-3-5-0-(3322334455)--------|
E|---------------------------------------------|

Part C3
e|-------------------------555555555-----------|
B|-------------------------555555555-----------|
G|-5-4-4-5-4-4-5-4-4-5-7-2-----------7^--------|
D|-5-4-4-5-4-4-5-4-4-5-7-2---------------------|
A|-3-2-2-3-2-2-3-2-2-3-5-0---------------------|
E|---------------------------------------------|

Part C4
e|---------------------------------------------|
B|---------------------------------------------|
G|-5-4-4-5-4-4-5-4-4-5-7-2-----------9p7p6-7^--|
D|-5-4-4-5-4-4-5-4-4-5-7-2-------5-7-----------|
A|-3-2-2-3-2-2-3-2-2-3-5-0----5-7--------------|
E|-------------------------5-8-----------------|

Order:
Intro
Part A  x6
Part B  x4
Part A  x4
Part B  x4
Part C1 x1
Part C2 x1
Part C3 x1
Part C4 x1
Part A  x4
Part B  x4
End On:
e|---|
B|---|
G|---|
D|-2-|
A|-2-|
E|-0-|
Comments