Misled - Live A Little Chords & Tabs

 

Live A Little Chords & Tabs

Misled Chords & Tabs

Version: 1 Type: Tab 0 ratings
1 star 2 stars 3 stars 4 stars 5 stars
comments

Live A Little Tab

-------------------------------------------------------------------------------
			     LIVE A LITTLE
-------------------------------------------------------------------------------

By:TWISTED RIFFER

RIFF1
e|---------------------------------------------------------------------------|
B|---------------------------------------------------------------------------|
G|---------------------------------------------------------------------------|
D|--2-2-2-0-2-2-2-0-2-2-2-0-2-2-2-0-2-2-2-0-2/5-5-5-5-5-5-5-5-5-5-7----------|
A|--2-2-2-0-2-2-2-0-2-2-2-0-2-2-2-0-2-2-2-0-2/5-5-5-5-5-5-5-5-5-5-7----------|
D|--2-2-2-0-2-2-2-0-2-2-2-0-2-2-2-0-2-2-2-0-2/5-5-5-5-5-5-5-5-5-5-7----------|
      P.M     P.M     P.M     P.M     P.M       P.M   P.M   P.M

RIFF2
THE 9'S AND 7'S ARE STRUMED DOWN UP 
e|---------------------------------------------------------------------------|
B|---------------------------------------------------------------------------|
G|---------------------------------------------------------------------------|
D|--9-9-9-9-9-9-9-9-9-9-9-9-9-9-9-9\7-7-7-7-7-7-7-7-7-7-7-7-7-7-5-5-3-3------|
A|--9-9-9-9-9-9-9-9-9-9-9-9-9-9-9-9\7-7-7-7-7-7-7-7-7-7-7-7-5-7-3-5-1-3------|
D|--9-9-9-9-9-9-9-9-9-9-9-9-9-9-9-9\7-7-7-7-7-7-7-7-7-7-7-7---7---5---3------|

RIFF3
e|-------------------------------------------------------------------------------|
B|-------------------------------------------------------------------------------|
G|-------------------------------------------------------------------------------|
D|--2-2-2-0-2-2-2-0-2-2-2-0-2-2-2-0-2-2-2-0-2/5-5-5-0-5-5-5-0-5-5-5-0-5-5-5-0-5-7|
A|--2-2-2-0-2-2-2-0-2-2-2-0-2-2-2-0-2-2-2-0-2/5-5-5-0-5-5-5-0-5-5-5-0-5-5-5-0-5-7|
D|--2-2-2-0-2-2-2-0-2-2-2-0-2-2-2-0-2-2-2-0-2/5-5-5-0-5-5-5-0-5-5-5-0-5-5-5-0-5-7|
   ----------------P.M-------------P.M-------------------------------------------
[ Tab from: http://www.guitartabs.cc/tabs/m/misled/live_a_little_tab.html ]
RIFF3                                                                     
e|----------------------------------------------------------------------------|
B|----------------------------------------------------------------------------|
G|----------------------------------------------------------------------------|
D|-3-3-3-3-3-0-5-5-5-5-5-0-7-7-7-7-7-0-9-9-9-9-9-7-7-7/5-5-5/3-3-3-1-3-1-0----|
A|-3-3-3-3-3-0-5-5-5-5-5-0-7-7-7-7-7-0-9-9-9-9-9-7-7-7/5-5-5/3-3-3-1-3-1-0----|
E|-3-3-3-3-3-0-5-5-5-5-5-0-7-7-7-7-7-0-9-9-9-9-9-7-7-7/5-5-5/3-3-3-1-3-1-0----|
                                                                         P




SOLO1
e|--------------------(12)---------(7)--------------------------------------|
B|-0-1/12V-0-1-12V-12-----(12)--------(7)---------12-14-15~-12-14-15-17-19V-|
G|----------------------------(12)-------(7)-(5)~---------------------------|
D|--------------------------------------------------------------------------|
A|--------------------------------------------------------------------------|
E|--------------------------------------------------------------------------|

e|----------------------------------17-15--------------|
B|-19-19B-17-15V-19-19B--17-15V-11V-------19-17--------|
G|----------------------------------------------21-19v-|
D|-----------------------------------------------------|
A|-----------------------------------------------------|
E|-----------------------------------------------------|

                                                
e|----------15-17~-17-15-19-17------------------------|
B|-------19--------------------17-15-17V---17-19*-17--|
G|-19-17---------------------------------17-----------|
D|----------------------------------------------------|
A|----------------------------------------------------|
E|----------------------------------------------------|

                                             
e|--15-17---------------------------------------------------|
B|--------17-15---------------------------------------------|
G|---------------15-17--------------------------------------|
D|---------------------17-15-----------------------------0~-|
A|---------------------------15-17-----------------------0~-|
E|---------------------------------17-15-17-18*-17-15-12\0~-|
HOW DOES IT GO
RIFF1  4X
RIFF2  2X
RIFF3  4X
RIFF2  2X
RIFF4  1X
SOLO1  1X
RIFF1  4X
Comments