Misfits - Witch Hunt Chords & Tabs

 

Witch Hunt Chords & Tabs

Misfits Chords & Tabs

Version: 3 Type: Tab 0 ratings
1 star 2 stars 3 stars 4 stars 5 stars
comments

Witch Hunt Tab

   
-------------------------------------------------------------------------------
			     Witch Hunt - Misfits
-------------------------------------------------------------------------------
Tabbed by: Astrozombie138(Antero Sosa)
Email: Astrozombie138@gmail.com

Tuning: 1/2 step down

(riff 1)
eb|-------------------------------------------|
Bb|-------------------------------------------|
Gb|-------------------------------------------|
Db|--7-7-7-7--8-8-8-8-----------10-10-10-10---|
Ab|--5-5-5-5--6-6-6-6--8-8-8-8--8--8--8--8----|
Eb|--5-5-5-5--6-6-6-6--6-6-6-6--8--8--8--8----|

(riff 2)
eb|-------------------------------------------|
Bb|-------------------------------------------|
Gb|-------------------------------------------|
Db|--7-7-7-7--8-8-8-8-----------10-10-10-10---|
Ab|--5-5-5-5--6-6-6-6--8-8-8-8--8--8--8--8----|
Eb|--5-5-5-5--6-6-6-6--6-6-6-6--8--8--8--8----|
(PM) . . . .  . . . .  . . . .  .  .  .  .

(riff 3)
eb|---------------------------------------------------------------------------|
Bb|---------------------------------------------------------------------------|
Gb|---------------------------------------------------------------------------|
Db|--8--8--8--8--8--8--------------------8--8--8--8--8--8---------------------|
Ab|--6--6--6--6--6--6--8--8--8--8--8--8--6--6--6--6--6--6--3--3--3--3--3--3---|
Eb|--------------------6--6--6--6--6--6--------------------1--1--1--1--1--1---|
[ Tab from: http://www.guitartabs.cc/tabs/m/misfits/witch_hunt_tab_ver_3.html ]
(riff 4a)                  (riff 4b)
eb|-----------------------|---------------------------------------------------|
Bb|-----------------------|---------------------------------------------------|
Gb|-----------------------|---------------------------------------------------|
Db|-----------------------|---------------------------------------------------|
Ab|--8--8--8--8-8--5--7---|--8--8--8--8-8-8-8-8-------------------------------|
Eb|--6--6--6--6-6--3--5---|--6--6--6--6-6-6-6-6-------------------------------|

(solo)
eb|---------------------------------------------------------------------------|
Bb|---8^--9^--8^--9^--8^-9^-8^-9^-8^-9^-11^-----------------------------------|
Gb|---------------------------------------------------------------------------|
Db|---------------------------------------------------------------------------|
Ab|---------------------------------------------------------------------------|
Eb|---------------------------------------------------------------------------|



order:
riff 1       2x
riff 2       4x
riff 3       1x
riff 1       2x
riff 2       4x
riff 3       1x
riff 4a      3x
riff 4b      1x
solo         1x
riff 3       1x
riff 4a      3x
riff 4b      1x

| ^  Bend whole step
| /  slide up
| \  slide down
| h  hammer-on
| p  pull-off
| ~  vibrato
| +  harmonic
| x  Mute note
===============================================================================
Comments