Misfits - Where Eagles Dare Chords & Tabs

 

Where Eagles Dare Chords & Tabs

Misfits Chords & Tabs

Version: 1 Type: Bass Tab 0 ratings
1 star 2 stars 3 stars 4 stars 5 stars
comments

Where Eagles Dare Bass Tab

Misfits
Where Eagles Dare

Verse
G-----------------------------------------------------
D-----------------------------------------------------
A-0-0-0-0-0-0-0-0-0-0-0-0-0-0-0-0----0-0-0-0-0-0-0-0--
E----------------------------------3------------------
[ Tab from: http://www.guitartabs.cc/tabs/m/misfits/where_eagles_dare_btab.html ]
Chorus
G-----------------------------------------------------
D-------------33333333333-55555555555-----------------
A-333333333333------------------------3333333333333333
E-----------------------------------------------------

End
G------------------------------------------------------
D------------------------------------------------------
A-3-3-3-3-3-----------0-0-0-0-0-0-3----------------3---
E----------3-3-3-3-3-3---------------------------------

You'll have to figure out where all the notes go and
such.  If it's wrong e-mail me at
misfits_skulls_chick@yahoo.com
Figured out by Mary Jane Potter and Chia



Comments