Misfits - We Are 138 Chords & Tabs

 

We Are 138 Chords & Tabs

Misfits Chords & Tabs

Version: 4 Type: Tab 0 ratings
1 star 2 stars 3 stars 4 stars 5 stars
comments

We Are 138 Tab

   
-----------------------------------------------------------------
We Are 138 - Misfits
-----------------------------------------------------------------
Tabbed by: Dillon
Email: Angelic_oioi_upstart@yahoo.com

Tuning:Standard

Intro:
e|---------------------------------------------------------------|
B|---------------------------------------------------------------|
G|-9-------------9-9-9-9-9-9-------------------------------------|
D|-9-(hold this)-9-9-9-9-9-9-10-12-(2 times)10101010-12-12-12-12-|
A|-7-------------7-7-7-7-7-7-10-12----------10101010-12-12-12-12-|
E|----------------------------8-10-----------8-8-8-8-10-10-10-10-|

Verse:
e|---------------------------------------------------------------|
B|---------------------------------------------------------------|
G|-999999999999--------------------------------------------------|
D|-9999999999991012---------------------10-----------12----------|
A|-7777777777771012-(4 times then play:)10-(8 times)-12-(8 times)|
E|--------------810----------------------8-----------10----------|
[ Tab from: http://www.guitartabs.cc/tabs/m/misfits/we_are_138_tab_ver_4.html ]
Solo:
e|---------------------------------------------------------------|
B|-45454545454545454545454545454545-55667788---------------------|
G|---------------------------------------------------------------|
D|---------------------------------------------------------------|
A|---------------------------------------------------------------|
E|---------------------------------------------------------------|

Ending:
e|---------------------------------------------------------------|
B|---------------------------------------------------------------|
G|-9-9-9-9-------------------------9-9-9-9-----------------------|
D|-9-9-9-9-10-10-10-10-12-12-12-12-9-9-9-9-(repeat as neccesary.)|
A|-7-7-7-7-10-10-10-10-12-12-12-12-7-7-7-7-----------------------|
E|----------8--8--8--8-10-10-10-10-------------------------------|

| / slide up
| \ slide down
| h hammer-on
| p pull-off
| ~ vibrato
| + harmonic
| x Mute note

#----------------------------------PLEASE NOTE---------------------------------#
#This file is the author's own work and represents their interpretation of the #
#song. You may only use this file for private study, scholarship, or research. #
#------------------------------------------------------------------------------#
Comments