Misfits - Tv Casualty Chords & Tabs

 

Tv Casualty Chords & Tabs

Misfits Chords & Tabs

Version: 2 Type: Tab 0 ratings
1 star 2 stars 3 stars 4 stars 5 stars
comments

Tv Casualty Tab

e|--------------------------|
B|--------------------------|
G|--------------------------|
D|-2-2-3-0------------------|
A|-0-0-0-0------------------|
E|--------------------------|

repeat this part 24 times
[ Tab from: http://www.guitartabs.cc/tabs/m/misfits/tv_casualty_tab_ver_2.html ]
e|------------------------------------------------------------------|
B|------------------------------------------------------------------|
G|------------------------------------------------------------------|
D|-6-6-5-5-5---6-6-5-5-5--3/4-3/4-3/4-444---------------------------|
A|-4-4-3-3-3---4-4-3-3-3--1/2-1/2-1/2-222---------------------------|
E|------------------------------------------------------------------|

play this 2 times

then the first part 32 times

then the second part 2 times

then the first part 32 times

then the second part 4 times

then the I love lucy theme

its kinda wrong but sounds good, trust me
Comments