Misfits - This Magic Moment Chords & Tabs

 

This Magic Moment Chords & Tabs

Misfits Chords & Tabs

Version: 1 Type: Tab 0 ratings
1 star 2 stars 3 stars 4 stars 5 stars
comments

This Magic Moment Tab

MISFITS, this magic moment.....from project 1950


ok.......this will be my first tablature....hope you guys enjoy it, its an easy song, 
prolly the easiest ive heard so far, and its all of 4 power chords repeated, with lots of distortion


this is the intro, listen to the song for the correct timing....its basicly played as fast as you can
hit the strings on both the up and down stroke.

E-----------------
B-----------------
G-----------------
D---11--8--4--6---
A---11--8--4--6---
E---9---6--2--4---
[ Tab from: http://www.guitartabs.cc/tabs/m/misfits/this_magic_moment_tab.html ]
the main body of the song is played by repeating this riff over and over, playing each chord 8 times
then moving on to the next......timing is easy one time listening and you should have it down

E-----------------
B-----------------
G-----------------
D---11--8--4--6---
A---11--8--4--6---
E---9---6--2--4---

the chorus is amazingly easy too, the order is switched slightly but its all the same chords, 
and i believe they are played ten times each now

E-----------------
B-----------------
G-----------------
D---8--4--11--6---
A---8--4--11--6---
E---6--2--9---4---

thats pretty much it, give it a try.....hope you like it
Comments