Misfits - Them Chords & Tabs

 

Them Chords & Tabs

Misfits Chords & Tabs

Version: 1 Type: Tab 0 ratings
1 star 2 stars 3 stars 4 stars 5 stars
comments

Them Tab

   
-------------------------------------------------------------------------------
			         THEM - Misfits
-------------------------------------------------------------------------------

By: Cottser (punker_999@hotmail.com)

Tune 1/2 step down
You can figure out where to play the parts, not hard.

  Intro/Verse
e|---------------------------------------------------------------------------|
B|---------------------------------------------------------------------------|
G|---------------------------------------------------------------------------|
D|-2-2--5-5--8-8--7-7--3-3-3-3-----------------------------------------------|
A|-2-2--5-5--8-8--7-7--3-3-3-3-----------------------------------------------|
E|-0-0--3-3--6-6--5-5--1-1-1-1-----------------------------------------------|
  PM----------------- 
  (light PM only during verse, not intro or other parts where it's used)
[ Tab from: http://www.guitartabs.cc/tabs/m/misfits/them_tab.html ]
  Chorus A                                            1.                2.
e|-----------------------------------------|-----------------|----------------|
B|-----------------------------------------|-----------------|----------------|
G|7-7-7---------7-7-7---------7-7-7--------|-----------------|----------------|
D|7-7-7--7-7-7--7-7-7--7-7-7--7-7-7--7-7-7-|-5-5-5-5-5-5-5-5-|-9-9-9-9-9-9-9-9|
A|5-5-5--7-7-7--5-5-5--7-7-7--5-5-5--7-7-7-|-5-5-5-5-5-5-5-5-|-7-7-7-7-7-7-7-7|
E|-------5-5-5---------5-5-5---------5-5-5-|-3-3-3-3-3-3-3-3-|-7-7-7-7-7-7-7-7|
                                             PM-------------- PM--------------
  Play this twice, first time end with the [1] part, second time, end with [2].
  
  Chorus B
e|----------------------------------------------------------------------------|
B|----------------------------------------------------------------------------|
G|-9-9-9-9-9-9-9--------------------------------------------------------------|
D|-9-9-9-9-9-9-9--9-9-9-9-9-9-9--7-7-7-7-7-7-7--9-9-9-9-9-9-9-----------------|
A|-7-7-7-7-7-7-7--9-9-9-9-9-9-9--7-7-7-7-7-7-7--9-9-9-9-9-9-9-----------------|
E|----------------7-7-7-7-7-7-7--5-5-5-5-5-5-5--7-7-7-7-7-7-7-----------------|

===============================================================================
Comments