Misfits - The Haunting Chords & Tabs

 

The Haunting Chords & Tabs

Misfits Chords & Tabs

Version: 2 Type: Tab 0 ratings
1 star 2 stars 3 stars 4 stars 5 stars
comments

The Haunting Tab

   
-------------------------------------------------------------------------------
			     The Haunting - Misfits
-------------------------------------------------------------------------------
Tabbed by: Astrozombie138

Tuning: 1/2 step down

(intro)
eb|---------------------------------------------------------------------------|
Bb|---------------------------------------------------------------------------|
Gb|---------------------------------------------------------------------------|
Db|--7-7-7-7-7-7-7-7-7-7-7-7-7-7-7-7------------------------------------------|
Ab|--5-5-5-5-5-5-5-5-5-5-5-5-5-5-5-5-------7-7-7-7-7--------------------------|
Eb|-----------------------------------/-\--5-5-5-5-5--------------------------|
(PM)   . . . . . . .   . . . . . . .         

(verse)
eb|---------------------------------------------------------------------------|
Bb|---------------------------------------------------------------------------|
Gb|---------------------------------------------------------------------------|
Db|--7--7-7-7-7-7-------------------------------------------------------------|
Ab|--5--5-5-5-5-5--7--7-7-7-7-7--9--9-9-9-9-9--5--5-5-5-5-5-------------------|
Eb|----------------5--5-5-5-5-5--7--7-7-7-7-7--3--3-3-3-3-3-------------------|

(interlude)
eb|---------------------------------------------------------------------------|
Bb|---------------------------------------------------------------------------|
Gb|---------------------------------------------------------------------------|
Db|---------------------------------------------------------------------------|
Ab|--9--9-9-9-9-9--5--5-5-5-5-5--9--9-9-9-9-9--5--5-5-5-5-5--9--9-9-9-9-9-----|
Eb|--7--7-7-7-7-7--3--3-3-3-3-3--7--7-7-7-7-7--3--3-3-3-3-3--7--7-7-7-7-7-----|
(PM)    . . . . .     . . . . .     . . . . .     . . . . .     . . . . . 

(interlude cont.)
eb|---------------------------------------------------------------------------|
Bb|---------------------------------------------------------------------------|
Gb|---------------------------------------------------------------------------|
Db|---------------------------------------------------------------------------|
Ab|--5--5-5-5-5-5--4--4--4--4--4----------------------------------------------|
Eb|--3--3-3-3-3-3--2--2--2--2--2----------------------------------------------|
(PM)    . . . . .

(chorus a)
eb|---------------------------------------------------------------------------|
Bb|---------------------------------------------------------------------------|
Gb|---------------------------------------------------------------------------|
Db|--7--7-7-7-7-7-7----------------------------------8--8-8-8-8-8-------------|
Ab|--5--5-5-5-5-5-5--7--7-7-7-7-7-7--5--5-5-5-5-5-5--6--6-6-6-6-6-------------|
Eb|------------------5--5-5-5-5-5-5--3--3-3-3-3-3-3---------------------------|
[ Tab from: http://www.guitartabs.cc/tabs/m/misfits/the_haunting_tab_ver_2.html ]
(chorus a cont.)
eb|---------------------------------------------------------------------------|
Bb|---------------------------------------------------------------------------|
Gb|---------------------------------------------------------------------------|
Db|--7--7-7-7-7-7-7----------------------------------------8--8--8--8---------|
Ab|--5--5-5-5-5-5-5--7--7-7-7-7-7-7--5--5-5-5-5-5-5--------6--6--6--6---------|
Eb|------------------5--5-5-5-5-5-5--3--3-3-3-3-3-3--/--\---------------------|

(chorus b)
eb|---------------------------------------------------------------------------|
Bb|---------------------------------------------------------------------------|
Gb|---------------------------------------------------------------------------|
Db|--7--7-7-7-7-7-7----------------------------------8--8-8-8-8-8-------------|
Ab|--5--5-5-5-5-5-5--7--7-7-7-7-7-7--5--5-5-5-5-5-5--6--6-6-6-6-6-------------|
Eb|------------------5--5-5-5-5-5-5--3--3-3-3-3-3-3---------------------------|

(chorus b cont.)
eb|---------------------------------------------------------------------------|
Bb|---------------------------------------------------------------------------|
Gb|---------------------------------------------------------------------------|
Db|--7--7-7-7-7-7-7------------------------------------------8--8--8--8-------|
Ab|--5--5-5-5-5-5-5--7--7-7-7-7-7-7--\5--5--5--5--5----------6--6--6--6-------|
Eb|------------------5--5-5-5-5-5-5--\3--3--3--3--3---------------------------|

(chorus c)
eb|---------------------------------------------------------------------------|
Bb|---------------------------------------------------------------------------|
Gb|---------------------------------------------------------------------------|
Db|--7--7-7-7-7-7-7----------------------------------8--8-8-8-8-8-------------|
Ab|--5--5-5-5-5-5-5--7--7-7-7-7-7-7--5--5-5-5-5-5-5--6--6-6-6-6-6-------------|
Eb|------------------5--5-5-5-5-5-5--3--3-3-3-3-3-3---------------------------|

(chorus c cont.)
eb|---------------------------------------------------------------------------|
Bb|---------------------------------------------------------------------------|
Gb|---------------------------------------------------------------------------|
Db|--7--7-7-7-7-7-7--------------------------------------8--8--8--8--7:--7----|
Ab|--5--5-5-5-5-5-5--7--7-7-7-7-7-7--\5--5--5--5--5------6--6--6--6--5:--5----|
Eb|------------------5--5-5-5-5-5-5--\3--3--3--3--3---------------------------|


order:
intro      1x
verse      2x
interlude  1x
chorus a   1x
chorus b   1x
intro      1x
verse      2x
interlude  1x
chorus a   1x
chorus c   1x


| :  Let ring
| PM Palm Mute
| /  slide up
| \  slide down
| h  hammer-on
| p  pull-off
| ~  vibrato
| +  harmonic
| x  Mute note
===============================================================================
Comments