Misfits - The Haunting Chords & Tabs

 

The Haunting Chords & Tabs

Misfits Chords & Tabs

Version: 1 Type: Tab 0 ratings
1 star 2 stars 3 stars 4 stars 5 stars
comments

The Haunting Tab

-------------------------------------------------------------------------------
                              THE HAUNTING - Misfits
-------------------------------------------------------------------------------

By:richard sturgis:ZEROGOALS@aol.com

INTRO:mute=========================>
E|------------------------------------------------------------------------|
B|------------------------------------------------------------------------|
G|------------------------------------------------------------------------|
D|6-6-6-6-6-6-6-6-6-6-6-6-6-6-6-6-6-6-6-6-6-6-6-6-------------------------|
A|4-4-4-4-4-4-4-4-4-4-4-4-4-4-4-4-4-4-4-4-4-4-4-4-----------6 6 6 6 6 6 6-|
E|---------------------------------------------------3/17\--4-4 4 4 4 4 4-|

VERSE:
e|------------------------------------------------------------------------|
B|------------------------------------------------------------------------|
G|------------------------------------------------------------------------|
D|6--6-6-6-6-6-6----------------------------------------------------------|
A|4--4-4-4-4-4-4---6--6-6-6-6-6-6---8--8-8-8-8-8-8---4--4-4-4-4-4-4-------|
E|-----------------4--4-4-4-4-4-4---6--6-6-6-6-6-6---2--2-2-2-2-2-2-------|
[ Tab from: http://www.guitartabs.cc/tabs/m/misfits/the_haunting_tab.html ]
PRE-CHORUS       =======>      =======>       ========>
e|------------------------------------------------------------------------|
B|------------------------------------------------------------------------|
G|------------------------------------------------------------------------|
D|------------------------------------------------------------------------|
A|8--8-8-8-8-8-8---4--4-4-4-4-4-4---8--8-8-8-8-8-8---4--4-4-4-4-4-4-------|
E|6--6-6-6-6-6-6---2--2-2-2-2-2-2---6--6-6-6-6-6-6---2--2-2-2-2-2-2-------|

      =======>       =======>       =======>
e|--------------------------------------------------------------------|
B|--------------------------------------------------------------------|
G|--------------------------------------------------------------------|
D|--------------------------------------------------------------------|
A|8--8-8-8-8-8-8---4--4-4-4-4-4-4---3--3-3-3-3-3-3--------------------|
E|6--6-6-6-6-6-6---2--2-2-2-2-2-2---1--1-1-1-1-1-1--------------------|

CHORUS:
e|--------------------------------------------------------------------|
B|--------------------------------------------------------------------|
G|--------------------------------------------------------------------|
D|6--6-6-6-6-6-6-------------------------------------7--7-7-7-7-7-7---|
A|4--4-4-4-4-4-4---6--6-6-6-6-6-6---4--4-4-4-4-4-4---5--5-5-5-5-5-5---|
E|-----------------4--4-4-4-4-4-4---2--2-2-2-2-2-2--------------------|

e|--------------------------------------------------------------------|
B|--------------------------------------------------------------------|
G|--------------------------------------------------------------------|
D|6--6-6-6-6-6-6---------------------------------------7--7-7-7-7-7-7-|
A|4--4-4-4-4-4-4---6--6-6-6-6-6-6---4--4-4-4-----------5--5-5-5-5-5-5-|
E|-----------------4--4-4-4-4-4-4---2--2-2-2---3/17\------------------|
Comments