Misfits - Teenagers From Mars Chords & Tabs

 

Teenagers From Mars Chords & Tabs

Misfits Chords & Tabs

Version: 3 Type: Tab 0 ratings
1 star 2 stars 3 stars 4 stars 5 stars
comments

Teenagers From Mars Tab

   
-------------------------------------------------------------------------------
		     Teenagers From Mars - Misfits
-------------------------------------------------------------------------------
Tabbed by: Astrozombie138(Antero Sosa)
Email: astrozombie138@gmail.com

Tuning: standard

(riff 1)
e|------------------------------------|
B|------------------------------------|
G|------------------------------------|
D|------------------------------------|
A|--5--5--5-5-5--6--6-6-6-6-6-6--3----|
E|--3--3--3-3-3--4--4-4-4-4-4-4--1----|

(riff 2)
e|----------------------------------|
B|----------------------------------|
G|----------------------------------|
D|-6--6--6-6-6----------------------|
A|-4--4--4-4-4--6--6-6-6-6-6-6-6----|
E|--------------4--4-4-4-4-4-4-4----|
[ Tab from: http://www.guitartabs.cc/tabs/m/misfits/teenagers_from_mars_tab_ver_3.html ]
(riff 3)
e|--------------------------------|
B|--------------------------------|
G|--------------------------------|
D|---------------9--9-9-9-9-9-----|
A|--9--9--9-9-9--7--7-7-7-7-7-----|
E|--7--7--7-7-7-------------------|

(riff 4)
e|-------------------------------------|
B|-------------------------------------|
G|-------------------------------------|
D|-----------------9--9--9-9-9-9-------|
A|--8--8--8-8-8-8--7--7--7-7-7-7-------|
E|--6--6--6-6-6-6----------------------|

(riff 5)
e|------------------------------|
B|------------------------------|
G|------------------------------|
D|------------------------------|
A|--7--7--7-7-7--9--9--9-9-9-9--|
E|--5--5--5-5-5--7--7--7-7-7-7--|



order:
riff 1        6x
riff 2        4x
riff 3        3x
riff 4        2x
riff 1        6x
riff 2        4x
riff 3        3x
riff 4        2x
riff 1        6x
riff 2        4x
riff 3        3x
riff 4        2x
riff 3        3x
riff 5        8x
end with  A chord and B chord



| /  slide up
| \  slide down
| h  hammer-on
| p  pull-off
| ~  vibrato
| +  harmonic
| x  Mute note
===============================================================================
Comments