Misfits - Teenagers From Mars Chords & Tabs

 

Teenagers From Mars Chords & Tabs

Misfits Chords & Tabs

Version: 1 Type: Tab 0 ratings
1 star 2 stars 3 stars 4 stars 5 stars
comments

Teenagers From Mars Tab

Teenagers From Mars

Transcribed by: Look_Upon_Me@yahoo.com

E  :----------------|----------------|----------------|----------------|
B  :----------------|----------------|----------------|----------------|
G  :----------------|----------------|----------------|----------------|
D  :----------------|5-x-5-x-5-5-5-6-|--6-6---6-3-3-3-|5-x-5-x-5-5-5-6-|
A  :----------------|5-x-5-x-5-5-5-6-|--6-6---6-3-3-3-|5-x-5-x-5-5-5-6-|
E  :----------------|3-x-3-x-3-3-3-4-|--4-4---4-1-1-1-|3-x-3-x-3-3-3-4-|

E  :----------------|----------------|----------------|----------------|
B  :----------------|----------------|----------------|----------------|
G  :----------------|----------------|----------------|----------------|
D  :--6-6---6-3-3-3-|5-x-5-x-5-5-5-6-|--6-6---6-3-3-3-|5-x-5-x-5-5-5-6-|
A  :--6-6---6-3-3-3-|5-x-5-x-5-5-5-6-|--6-6---6-3-3-3-|5-x-5-x-5-5-5-6-|
E  :--4-4---4-1-1-1-|3-x-3-x-3-3-3-4-|--4-4---4-1-1-1-|3-x-3-x-3-3-3-4-|

E  :----------------|----------------|----------------|----------------|
B  :----------------|----------------|----------------|----------------|
G  :----------------|----------------|----------------|----------------|
D  :--6-6---6-3-3-3-|5-x-5-x-5-5-5-6-|--6-6---6-3-3-3-|5-x-5-x-5-5-5-6-|
A  :--6-6---6-3-3-3-|5-x-5-x-5-5-5-6-|--6-6---6-3-3-3-|5-x-5-x-5-5-5-6-|
E  :--4-4---4-1-1-1-|3-x-3-x-3-3-3-4-|--4-4---4-1-1-1-|3-x-3-x-3-3-3-4-|

E  :----------------|----------------|----------------|----------------|
B  :----------------|----------------|----------------|----------------|
G  :----------------|6-6-6-6-6-6-6-6-|----------------|6-6-6-6-6-6-6-6-|
D  :--6-6---6-3-3-3-|6-6-6-6-6-6-6-6-|6-6-6-6-6-6-6-6-|6-6-6-6-6-6-6-6-|
A  :--6-6---6-3-3-3-|4-4-4-4-4-4-4-4-|6-6-6-6-6-6-6-6-|4-4-4-4-4-4-4-4-|
E  :--4-4---4-1-1-1-|----------------|4-4-4-4-4-4-4-4-|----------------|

E  :----------------|----------------|----------------|----------------|
B  :----------------|----------------|----------------|----------------|
G  :----------------|6-6-6-6-6-6-6-6-|----------------|6-6-6-6-6-6-6-6-|
D  :6-6-6-6-6-6-6-6-|6-6-6-6-6-6-6-6-|6-6-6-6-6-6-6-6-|6-6-6-6-6-6-6-6-|
A  :6-6-6-6-6-6-6-6-|4-4-4-4-4-4-4-4-|6-6-6-6-6-6-6-6-|4-4-4-4-4-4-4-4-|
E  :4-4-4-4-4-4-4-4-|----------------|4-4-4-4-4-4-4-4-|----------------|

E  :----------------|----------------|----------------|----------------|
B  :----------------|----------------|----------------|----------------|
G  :----------------|----------------|9-9-9-9-9-9-9-9-|----------------|
D  :6-6-6-6-6-6-6-6-|9-9-9-9-9-9-9-9-|9-9-9-9-9-9-9-9-|9-9-9-9-9-9-9-9-|
A  :6-6-6-6-6-6-6-6-|9-9-9-9-9-9-9-9-|7-7-7-7-7-7-7-7-|9-9-9-9-9-9-9-9-|
E  :4-4-4-4-4-4-4-4-|7-7-7-7-7-7-7-7-|----------------|7-7-7-7-7-7-7-7-|

E  :----------------|----------------|----------------|
B  :----------------|----------------|----------------|
G  :9-9-9-9-9-9-9-9-|----------------|9-9-9-9-9-9-9-9-|
D  :9-9-9-9-9-9-9-9-|9-9-9-9-9-9-9-9-|9-9-9-9-9-9-9-9-|
A  :7-7-7-7-7-7-7-7-|9-9-9-9-9-9-9-9-|7-7-7-7-7-7-7-7-|
E  :----------------|7-7-7-7-7-7-7-7-|----------------|

E  :|*----------------|----------------*1|----------------|
B  :|*----------------|----------------*||----------------|
G  :| ----------------|9-9-9-9-9-9-9-9- ||----------------|
D  :| 8-8-8-8-8-8-8-8-|9-9-9-9-9-9-9-9- ||5-x-5-x-5-5-5-6-|
A  :| 8-8-8-8-8-8-8-8-|7-7-7-7-7-7-7-7- ||5-x-5-x-5-5-5-6-|
E  :| 6-6-6-6-6-6-6-6-|---------------- ||3-x-3-x-3-3-3-4-|

E  :----------------|----------------|----------------|----------------|
B  :----------------|----------------|----------------|----------------|
G  :----------------|----------------|----------------|----------------|
D  :--6-6---6-3-3-3-|5-x-5-x-5-5-5-6-|--6-6---6-3-3-3-|5-x-5-x-5-5-5-6-|
A  :--6-6---6-3-3-3-|5-x-5-x-5-5-5-6-|--6-6---6-3-3-3-|5-x-5-x-5-5-5-6-|
E  :--4-4---4-1-1-1-|3-x-3-x-3-3-3-4-|--4-4---4-1-1-1-|3-x-3-x-3-3-3-4-|

E  :----------------|----------------|----------------|----------------|
B  :----------------|----------------|----------------|----------------|
G  :----------------|----------------|----------------|----------------|
D  :--6-6---6-3-3-3-|5-x-5-x-5-5-5-6-|--6-6---6-3-3-3-|5-x-5-x-5-5-5-6-|
A  :--6-6---6-3-3-3-|5-x-5-x-5-5-5-6-|--6-6---6-3-3-3-|5-x-5-x-5-5-5-6-|
E  :--4-4---4-1-1-1-|3-x-3-x-3-3-3-4-|--4-4---4-1-1-1-|3-x-3-x-3-3-3-4-|

E  :----------------|----------------|----------------|----------------|
B  :----------------|----------------|----------------|----------------|
G  :----------------|----------------|----------------|6-6-6-6-6-6-6-6-|
D  :--6-6---6-3-3-3-|5-x-5-x-5-5-5-6-|--6-6---6-3-3-3-|6-6-6-6-6-6-6-6-|
A  :--6-6---6-3-3-3-|5-x-5-x-5-5-5-6-|--6-6---6-3-3-3-|4-4-4-4-4-4-4-4-|
E  :--4-4---4-1-1-1-|3-x-3-x-3-3-3-4-|--4-4---4-1-1-1-|----------------|

E  :----------------|----------------|----------------|----------------|
B  :----------------|----------------|----------------|----------------|
G  :----------------|6-6-6-6-6-6-6-6-|----------------|6-6-6-6-6-6-6-6-|
D  :6-6-6-6-6-6-6-6-|6-6-6-6-6-6-6-6-|6-6-6-6-6-6-6-6-|6-6-6-6-6-6-6-6-|
A  :6-6-6-6-6-6-6-6-|4-4-4-4-4-4-4-4-|6-6-6-6-6-6-6-6-|4-4-4-4-4-4-4-4-|
E  :4-4-4-4-4-4-4-4-|----------------|4-4-4-4-4-4-4-4-|----------------|

E  :----------------|----------------|----------------|----------------|
B  :----------------|----------------|----------------|----------------|
G  :----------------|6-6-6-6-6-6-6-6-|----------------|----------------|
D  :6-6-6-6-6-6-6-6-|6-6-6-6-6-6-6-6-|6-6-6-6-6-6-6-6-|9-9-9-9-9-9-9-9-|
A  :6-6-6-6-6-6-6-6-|4-4-4-4-4-4-4-4-|6-6-6-6-6-6-6-6-|9-9-9-9-9-9-9-9-|
E  :4-4-4-4-4-4-4-4-|----------------|4-4-4-4-4-4-4-4-|7-7-7-7-7-7-7-7-|

E  :----------------|----------------|----------------|----------------|
B  :----------------|----------------|----------------|----------------|
G  :9-9-9-9-9-9-9-9-|----------------|9-9-9-9-9-9-9-9-|----------------|
D  :9-9-9-9-9-9-9-9-|9-9-9-9-9-9-9-9-|9-9-9-9-9-9-9-9-|9-9-9-9-9-9-9-9-|
A  :7-7-7-7-7-7-7-7-|9-9-9-9-9-9-9-9-|7-7-7-7-7-7-7-7-|9-9-9-9-9-9-9-9-|
E  :----------------|7-7-7-7-7-7-7-7-|----------------|7-7-7-7-7-7-7-7-|
[ Tab from: http://www.guitartabs.cc/tabs/m/misfits/teenagers_from_mars_tab.html ]
E  :----------------||*----------------|----------------*1|
B  :----------------||*----------------|----------------*||
G  :9-9-9-9-9-9-9-9-|| ----------------|9-9-9-9-9-9-9-9- ||
D  :9-9-9-9-9-9-9-9-|| 8-8-8-8-8-8-8-8-|9-9-9-9-9-9-9-9- ||
A  :7-7-7-7-7-7-7-7-|| 8-8-8-8-8-8-8-8-|7-7-7-7-7-7-7-7- ||
E  :----------------|| 6-6-6-6-6-6-6-6-|---------------- ||

E  :----------------|----------------|----------------|----------------|
B  :----------------|----------------|----------------|----------------|
G  :----------------|----------------|----------------|----------------|
D  :5-x-5-x-5-5-5-6-|--6-6---6-3-3-3-|5-x-5-x-5-5-5-6-|--6-6---6-3-3-3-|
A  :5-x-5-x-5-5-5-6-|--6-6---6-3-3-3-|5-x-5-x-5-5-5-6-|--6-6---6-3-3-3-|
E  :3-x-3-x-3-3-3-4-|--4-4---4-1-1-1-|3-x-3-x-3-3-3-4-|--4-4---4-1-1-1-|

E  :----------------|----------------|----------------|----------------|
B  :----------------|----------------|----------------|----------------|
G  :----------------|----------------|----------------|----------------|
D  :5-x-5-x-5-5-5-6-|--6-6---6-3-3-3-|5-x-5-x-5-5-5-6-|--6-6---6-3-3-3-|
A  :5-x-5-x-5-5-5-6-|--6-6---6-3-3-3-|5-x-5-x-5-5-5-6-|--6-6---6-3-3-3-|
E  :3-x-3-x-3-3-3-4-|--4-4---4-1-1-1-|3-x-3-x-3-3-3-4-|--4-4---4-1-1-1-|

E  :----------------|----------------|----------------|----------------|
B  :----------------|----------------|----------------|----------------|
G  :----------------|----------------|----------------|----------------|
D  :5-x-5-x-5-5-5-6-|--6-6---6-3-3-3-|5-x-5-x-5-5-5-6-|--6-6---6-3-3-3-|
A  :5-x-5-x-5-5-5-6-|--6-6---6-3-3-3-|5-x-5-x-5-5-5-6-|--6-6---6-3-3-3-|
E  :3-x-3-x-3-3-3-4-|--4-4---4-1-1-1-|3-x-3-x-3-3-3-4-|--4-4---4-1-1-1-|

E  :----------------|----------------|----------------|----------------|
B  :----------------|----------------|----------------|----------------|
G  :6-6-6-6-6-6-6-6-|----------------|6-6-6-6-6-6-6-6-|----------------|
D  :6-6-6-6-6-6-6-6-|6-6-6-6-6-6-6-6-|6-6-6-6-6-6-6-6-|6-6-6-6-6-6-6-6-|
A  :4-4-4-4-4-4-4-4-|6-6-6-6-6-6-6-6-|4-4-4-4-4-4-4-4-|6-6-6-6-6-6-6-6-|
E  :----------------|4-4-4-4-4-4-4-4-|----------------|4-4-4-4-4-4-4-4-|

E  :----------------|----------------|----------------|----------------|
B  :----------------|----------------|----------------|----------------|
G  :6-6-6-6-6-6-6-6-|----------------|6-6-6-6-6-6-6-6-|----------------|
D  :6-6-6-6-6-6-6-6-|6-6-6-6-6-6-6-6-|6-6-6-6-6-6-6-6-|6-6-6-6-6-6-6-6-|
A  :4-4-4-4-4-4-4-4-|6-6-6-6-6-6-6-6-|4-4-4-4-4-4-4-4-|6-6-6-6-6-6-6-6-|
E  :----------------|4-4-4-4-4-4-4-4-|----------------|4-4-4-4-4-4-4-4-|

E  :----------------|----------------|----------------|----------------|
B  :----------------|----------------|----------------|----------------|
G  :----------------|9-9-9-9-9-9-9-9-|----------------|9-9-9-9-9-9-9-9-|
D  :9-9-9-9-9-9-9-9-|9-9-9-9-9-9-9-9-|9-9-9-9-9-9-9-9-|9-9-9-9-9-9-9-9-|
A  :9-9-9-9-9-9-9-9-|7-7-7-7-7-7-7-7-|9-9-9-9-9-9-9-9-|7-7-7-7-7-7-7-7-|
E  :7-7-7-7-7-7-7-7-|----------------|7-7-7-7-7-7-7-7-|----------------|

E  :----------------|----------------||*----------------|
B  :----------------|----------------||*----------------|
G  :----------------|9-9-9-9-9-9-9-9-|| ----------------|
D  :9-9-9-9-9-9-9-9-|9-9-9-9-9-9-9-9-|| 8-8-8-8-8-8-8-8-|
A  :9-9-9-9-9-9-9-9-|7-7-7-7-7-7-7-7-|| 8-8-8-8-8-8-8-8-|
E  :7-7-7-7-7-7-7-7-|----------------|| 6-6-6-6-6-6-6-6-|

E  :----------------*1|----------------|----------------|
B  :----------------*||----------------|----------------|
G  :9-9-9-9-9-9-9-9- ||----------------|9-9-9-9-9-9-9-9-|
D  :9-9-9-9-9-9-9-9- ||9-9-9-9-9-9-9-9-|9-9-9-9-9-9-9-9-|
A  :7-7-7-7-7-7-7-7- ||9-9-9-9-9-9-9-9-|7-7-7-7-7-7-7-7-|
E  :---------------- ||7-7-7-7-7-7-7-7-|----------------|

E  :----------------|----------------|----------------|----------------|
B  :----------------|----------------|----------------|----------------|
G  :----------------|9-9-9-9-9-9-9-9-|----------------|9-9-9-9-9-9-9-9-|
D  :9-9-9-9-9-9-9-9-|9-9-9-9-9-9-9-9-|9-9-9-9-9-9-9-9-|9-9-9-9-9-9-9-9-|
A  :9-9-9-9-9-9-9-9-|7-7-7-7-7-7-7-7-|9-9-9-9-9-9-9-9-|7-7-7-7-7-7-7-7-|
E  :7-7-7-7-7-7-7-7-|----------------|7-7-7-7-7-7-7-7-|----------------|

E  :----------------|----------------|----------------|----------------|
B  :----------------|----------------|----------------|----------------|
G  :----------------|----------------|----------------|----------------|
D  :7-7-7-7-7-7-7-7-|9-9-9-9-9-9-9-9-|7-7-7-7-7-7-7-7-|9-9-9-9-9-9-9-9-|
A  :7-7-7-7-7-7-7-7-|9-9-9-9-9-9-9-9-|7-7-7-7-7-7-7-7-|9-9-9-9-9-9-9-9-|
E  :5-5-5-5-5-5-5-5-|7-7-7-7-7-7-7-7-|5-5-5-5-5-5-5-5-|7-7-7-7-7-7-7-7-|

E  :----------------|----------------|----------------|----------------|
B  :----------------|----------------|----------------|----------------|
G  :----------------|----------------|----------------|----------------|
D  :7-7-7-7-7-7-7-7-|9-9-9-9-9-9-9-9-|7-7-7-7-7-7-7-7-|9-9-9-9-9-9-9-9-|
A  :7-7-7-7-7-7-7-7-|9-9-9-9-9-9-9-9-|7-7-7-7-7-7-7-7-|9-9-9-9-9-9-9-9-|
E  :5-5-5-5-5-5-5-5-|7-7-7-7-7-7-7-7-|5-5-5-5-5-5-5-5-|7-7-7-7-7-7-7-7-|

E  :----------------|----------------|----------------|----------------|
B  :----------------|----------------|----------------|----------------|
G  :----------------|----------------|----------------|----------------|
D  :7-7-7-7-7-7-7-7-|9-9-9-9-9-9-9-9-|7-7-7-7-7-7-7-7-|9-9-9-9-9-9-9-9-|
A  :7-7-7-7-7-7-7-7-|9-9-9-9-9-9-9-9-|7-7-7-7-7-7-7-7-|9-9-9-9-9-9-9-9-|
E  :5-5-5-5-5-5-5-5-|7-7-7-7-7-7-7-7-|5-5-5-5-5-5-5-5-|7-7-7-7-7-7-7-7-|

E  :----------------|----------------|----------------|----------------|
B  :----------------|----------------|----------------|----------------|
G  :----------------|----------------|----------------|----------------|
D  :7-7-7-7-7-7-7-7-|9-9-9-9-9-9-9-9-|7-7-7-7-7-7-7-7-|9-9-9-9-9-9-9-9-|
A  :7-7-7-7-7-7-7-7-|9-9-9-9-9-9-9-9-|7-7-7-7-7-7-7-7-|9-9-9-9-9-9-9-9-|
E  :5-5-5-5-5-5-5-5-|7-7-7-7-7-7-7-7-|5-5-5-5-5-5-5-5-|7-7-7-7-7-7-7-7-|

E  :----------------|----------------|----------------|
B  :----------------|----------------|----------------|
G  :----------------|----------------|----------------|
D  :7---------------|9---------------|*---------------|
A  :7---------------|9---------------|----------------|
E  :5---------------|7---------------|----------------|
Comments