Misfits - Some Kinda Hate Chords & Tabs

 

Some Kinda Hate Chords & Tabs

Misfits Chords & Tabs

Version: 3 Type: Tab 0 ratings
1 star 2 stars 3 stars 4 stars 5 stars
comments

Some Kinda Hate Tab

This is the SOLO!
E|---------------------------------|---------------------------------|
B|---------------------------------|---------------------------------|
G|---14----12--9---9---7-5-7-5--2--|---------------------------------|
D|---------------------------------|---------------------------------|
A|---------------------------------|---------------------------------|
E+---------------------------------|---------------------------------+
[ Tab from: http://www.guitartabs.cc/tabs/m/misfits/some_kinda_hate_tab_ver_3.html ]
Then after that you will go back to this:
E|---------------------------------|---------------------------------|
B|---------------------------------|---------------------------------|
G|-5-----5-5-----5-5-----5-5---4---|-2-----2-2-----2-2-----2-2---4---|
D|-5-----5-5-----5-5-----5-5---4---|-2-----2-2-----2-2-----2-2---4---|
A|-3-----3-3-----3-3-----3-3---2---|-0-----0-0-----0-0-----0-0---2---|
E+---------------------------------|---------------------------------+

or on vesion 2 you will go back to this:
E|--------------------------------------------------------|
B|--------------------------------------------------------|
G|--------------------------------------------------------|
D|--------------------------------------------------------|
A|---10---10-10---10-10---10-10---9---7--77--77---77--9---|
E|----8----8--8----8--8----8--8---7---5--55--55---55--7---+

and do that a few times.
Comments