Misfits - Some Kinda Hate Chords & Tabs

 

Some Kinda Hate Chords & Tabs

Misfits Chords & Tabs

Version: 1 Type: Tab 0 ratings
1 star 2 stars 3 stars 4 stars 5 stars
comments

Some Kinda Hate Tab

   
MISFITS
SOME KINDA HATE
by guillermo luppi
===============
  riff:
E|---------------------------------|---------------------------------|
B|---------------------------------|---------------------------------|
G|-5-----5-5-----5-5-----5-5---4---|-2-----2-2-----2-2-----2-2---4---|
D|-5-----5-5-----5-5-----5-5---4---|-2-----2-2-----2-2-----2-2---4---|
A|-3-----3-3-----3-3-----3-3---2---|-0-----0-0-----0-0-----0-0---2---|
E+---------------------------------|---------------------------------+
 | C                           B     A                           B   |
 |                                                                   |
G+---------------------------------|---------------------------------+
D|---------------------------------|---------------------------------|
A|-3-----3-3-----3-3-----3-3---2---|-0-----0-0-----0-0-----0-0---2---|
E|---------------------------------|---------------------------------|

  solo:
E|---------------------------------|---------------------------------|
B|---------------------------------|---------------------------------|
G|/A---A-A-A-A-G---9---9-9---9-9-9-|-7---5---7---5---2---2-2---2-2-2-|
D|---------------------------------|---------------------------------|
A|---------------------------------|---------------------------------|
E|---------------------------------|---------------------------------|

Note: Due to space and clarity, the first two notes of the solo are 
      abbreviated.  In actuality, A = 14th fret, G = 12th fret.
[ Tab from: http://www.guitartabs.cc/tabs/m/misfits/some_kinda_hate_tab.html ]
 riff  (4x)
 F  G  (4x)
 riff  (3x)
 F  G  (4x)
 G# C# (4x)
 riff       w/guitar solo
 riff  (2x)
 F  G  (4x)
 C
===========
SOME KINDA HATE
by The Misfits
tabbed by Dan Croy
Triplasphere@aol.com

VERSE RIFF (repeat a lot)
---------------------------------|---------------------------------|
---------------------------------|---------------------------------|
-5-----5-5-----5-5-----5-5---4---|-2-----2-2-----2-2-----2-2---4---|
-5-----5-5-----5-5-----5-5---4---|-2-----2-2-----2-2-----2-2---4---|
-3-----3-3-----3-3-----3-3---2---|-0-----0-0-----0-0-----0-0---2---|  
---------------------------------|---------------------------------|

CHORUS RIFF
3x_______________________________then
-----------------------------------|-------------|
-----------------------------------|-------------|
-----------------------------------|-------------|
-3-3-3-3-3-3-3-3--5-5-5-5-5-5-5-5--|---3-----5---|
-3-3-3-3-3-3-3-3--5-5-5-5-5-5-5-5--|---3-----5---|
-1-1-1-1-1-1-1-1--3-3-3-3-3-3-3-3--|---1-----3---|

REPEAT VERSE
REPEAT CHORUS

INTERLUDE (4x)
---------------------------------|
---------------------------------|
-----------------6-6-6-6-6-6-6-6-|
-6-6-6-6-6-6-6-6-6-6-6-6-6-6-6-6-|
-6-6-6-6-6-6-6-6-4-4-4-4-4-4-4-4-|
-4-4-4-4-4-4-4-4-----------------|

GUITAR SOLO
---------------------|
---------------------|
14--12--9--7-5-7-5-2-|
---------------------|
---------------------|
---------------------|

REPEAT VERSE
REPEAT CHORUS
end final chorus with:
------------------|
------------------|
------------------|
---3-----5-----3--|
---3-----5-----3--|
---1-----3-----1--|
Comments