Misfits - Some Kinda Hate Chords & Tabs

 

Some Kinda Hate Chords & Tabs

Misfits Chords & Tabs

Version: 3 Type: Bass Tab 0 ratings
1 star 2 stars 3 stars 4 stars 5 stars
comments

Some Kinda Hate Bass Tab

   
Standard Tuning:
E,A,D,G

~~~~= let it ring

Verse:
G:-----------------------------------|
D:-----------------------------------|
A:-3-33-33-33-2-0-00-00-00-2-3-------|      (Play this 4 times)
E:-----------------------------------|

G:---------5-6666666----------|
D:-6666666--------------------|      (Play this 4 times)
A:----------------------------|
E:----------------------------|

G:-----------------------------------|
D:-----------------------------------|
A:-3-33-33-33-2-0-00-00-00-2-3-------|      (Play this 4 times)
E:-----------------------------------|
[ Tab from: http://www.guitartabs.cc/tabs/m/misfits/some_kinda_hate_btab_ver_3.html ]
G:---------5-6666666----------|
D:-6666666--------------------|      (Play this 4 times)
A:----------------------------|
E:----------------------------|

G:----------------------------|
D:----------------------------|
A:---------88888888-----------|      (Play this 4 times)
E:88888888--------------------|

G:-----------------------------------|
D:-----------------------------------|
A:-3-33-33-33-2-0-00-00-00-2-3-------|      (Play this 4 times)
E:-----------------------------------|

G:---------5-6666666----------|
D:-6666666--------------------|      (Play this 4 times)
A:----------------------------|
E:----------------------------|

G:----------------------------|
D:----------------------------|
A:---3~~~~--------------------|
E:----------------------------|
Comments