Misfits - Skulls Chords & Tabs

 

Skulls Chords & Tabs

Misfits Chords & Tabs

Version: 2 Type: Tab 0 ratings
1 star 2 stars 3 stars 4 stars 5 stars
comments

Skulls Tab

this is the whole song and its right and the others are wrong.


Intro/1st verse
|------------------------------|
|------------------------------|
|------9---11---7--------------|
|--7---9---11---7--------------| (4x)
|--7---7---9----5--------------|
|--5---------------------------|

Chorus
|-----------|    |-------------------|
|-----------|    |-------------------|
|--------7--|    |-----------7---9---|
|--4-----7--|(3x)|--4----5---7---9---|
|--4-----5--|    |--4----5---5---7---|
|--2--------|    |--2----3-----------|

2nd verse
|------------------------------|
|------------------------------|
|------9---11---7--------------|
|--7---9---11---7--------------| (2x)
|--7---7---9----5--------------|
|--5---------------------------|
[ Tab from: http://www.guitartabs.cc/tabs/m/misfits/skulls_tab_ver_2.html ]
Chorus
|-----------|    |-------------------|
|-----------|    |-------------------|
|--------7--|    |-----------7---9---|
|--4-----7--|(3x)|--4----5---7---9---|
|--4-----5--|    |--4----5---5---7---|
|--2--------|    |--2----3-----------|

Bridge
|---------------------------------|     |------------------------|
|---10-------------10-------------|     |------------------------|
|---11---7---9-----11---7---9-----|     |---6-6-6-6-6-6-6-6------|
|---11---7---9-----11---7---9-----| (4X)|---6-6-6-6-6-6-6-6------|
|---9----5---7-----9----5---7-----|     |---4-4-4-4-4-4-4-4------|
|---------------------------------|     |------------------------|

Final Chorus
|-----------------------------|
|-----------------------------|
|--------7------------7---9---|
|--4-----7---4----5---7---9---|  (4x)
|--4-----5---4----5---5---7---|
|--2---------2----3-----------|

Outro
|------------------------------|
|------------------------------|
|---6--6--6--6--6--6--6--6--6--|
|---6--6--6--6--6--6--6--6--6--|
|---4--4--4--4--4--4--4--4--4--|
|------------------------------|

this is the tab and im very very sure its right. Just figure out the strumming. Good luck.
Comments