Misfits - Skulls Chords & Tabs

 

Skulls Chords & Tabs

Misfits Chords & Tabs

Version: 1 Type: Bass Tab 0 ratings
1 star 2 stars 3 stars 4 stars 5 stars
comments

Skulls Bass Tab

Verse
G[------------------------------------------------------------]
D[------------------------------------------------------------]
A[---------------7-7-7-7---9-9-9-9----5-5-5-5-----------------]
E[---5-5-5-5--------------------------------------------------]
[ Tab from: http://www.guitartabs.cc/tabs/m/misfits/skulls_btab.html ]
Chorus
G[------------------------------------------------------------]
D[------------------------------------------------------------]
A[-----------------55555555----------------55555555-----5----7]
G[---55555555----------------55555555-------------------------]

Bridge
G[------------------------------------------------------------]
D[------------------------------------------------------------]
A[-----------5-7---------5-7-----------5-7--------------------]
G[--5555---------5555--------5555-----------------------------]

I didn’t put the exact # of times u strum or do the bridge. 
It is a simple song so you should be able to put the parts 
together.  This is my first tab so enjoy~ Ryan
Comments