Misfits - Shining Chords & Tabs

 

Shining Chords & Tabs

Misfits Chords & Tabs

Version: 2 Type: Tab 0 ratings
1 star 2 stars 3 stars 4 stars 5 stars
comments

Shining Tab

Song: Shining
Band: Misfits
Tabbed by: Ramone
Email: ramone_ussc@hotmail.com

Tuning: Drop D Tuning

Intro: Guitar 1

e|--------------------------------------------------------------------|
B|--------------------------------------------------------------------|
G|--------------------------------------------------------------------|
D|--1-111111-6-4-6-4-1-111111-6-4-6-4-1-111111-6-4-6-4-1-111111-8-88--| (2X)
A|--1-111111-6-4-6-4-1-111111-6-4-6-4-1-111111-6-4-6-4-1-111111-8-88--|
E|--1-111111-6-4-6-4-1-111111-6-4-6-4-1-111111-6-4-6-4-1-111111-8-88--|
                                                                \  /
Verse: Guitar 1                                                 BEND

e|----------------------------------------|
B|----------------------------------------|
G|----------------------------------------|
D|--1-11111111111111--9-9-9999--8-8-8888--| (3X)
A|--1-11111111111111--9-9-9999--8-8-8888--|
E|--1-11111111111111--9-9-9999--8-8-8888--|
      **************

e|--------------------------------------------------------------------------|
B|--------------------------------------------------------------------------|
G|--------------------------------------------------------------------------|
D|--1-11111111111111--9-9-9999-99-9-9--8-8-8888-88-8888-88-8888--9-99-8-88--|
A|--1-11111111111111--9-9-9999-99-9-9--8-8-8888-88-8888-88-8888--9-99-8-88--|
E|--1-11111111111111--9-9-9999-99-9-9--8-8-8888-88-8888-88-8888--9-99-8-88--|
      **************

e|--------------------------------------------------------------------|
B|--------------------------------------------------------------------|
G|--------------------------------------------------------------------|
D|--1-111111-6-4-6-4-1-111111-6-4-6-4-1-111111-6-4-6-4-1-111111-8-88--| (2X)
A|--1-111111-6-4-6-4-1-111111-6-4-6-4-1-111111-6-4-6-4-1-111111-8-88--|
E|--1-111111-6-4-6-4-1-111111-6-4-6-4-1-111111-6-4-6-4-1-111111-8-88--|
                                                                \  /
Verse: Guitar 1                                                 BEND

e|----------------------------------------|
B|----------------------------------------|
G|----------------------------------------|
D|--1-11111111111111--9-9-9999--8-8-8888--| (3X)
A|--1-11111111111111--9-9-9999--8-8-8888--|
E|--1-11111111111111--9-9-9999--8-8-8888--|
      **************

e|--------------------------------------------------------------------------|
B|--------------------------------------------------------------------------|
G|--------------------------------------------------------------------------|
D|--1-11111111111111--9-9-9999-99-9-9--8-8-8888-88-8888-88-8888--9-99-8-88--|
A|--1-11111111111111--9-9-9999-99-9-9--8-8-8888-88-8888-88-8888--9-99-8-88--|
E|--1-11111111111111--9-9-9999-99-9-9--8-8-8888-88-8888-88-8888--9-99-8-88--|
      **************
                                              
Chorus: Guitar 1

e|-----------------------------------------|
B|-----------------------------------------|
G|--5-5-5555-5-5-5555----------------------|
D|--5-5-5555-5-5-5555--6-6-6666--8-8-8888--| (3X)
A|--3-3-3333-3-3-3333--6-6-6666--8-8-8888--|
E|---------------------6-6-6666--8-8-8888--|

e|-------------------------------------------------------------|
B|-------------------------------------------------------------|
G|--5-5-5555-5-5-5555------------------------------------------|
D|--5-5-5555-5-5-5555--6-6-6666--8-8-8888--9-9-9999--8-8-8888--|
A|--3-3-3333-3-3-3333--6-6-6666--8-8-8888--9-9-9999--8-8-8888--|
E|---------------------6-6-6666--8-8-8888--9-9-9999--8-8-8888--|
[ Tab from: http://www.guitartabs.cc/tabs/m/misfits/shining_tab_ver_2.html ]
e|--------------------------------------------------------------------|
B|--------------------------------------------------------------------|
G|--------------------------------------------------------------------|
D|--1-111111-6-4-6-4-1-111111-6-4-6-4-1-111111-6-4-6-4-1-111111-8-88--| (2X)
A|--1-111111-6-4-6-4-1-111111-6-4-6-4-1-111111-6-4-6-4-1-111111-8-88--|
E|--1-111111-6-4-6-4-1-111111-6-4-6-4-1-111111-6-4-6-4-1-111111-8-88--|
                                                                \  /
                                                                BEND
Verse: Guitar 1                                                 

e|----------------------------------------|
B|----------------------------------------|
G|----------------------------------------|
D|--1-11111111111111--9-9-9999--8-8-8888--| (3X)
A|--1-11111111111111--9-9-9999--8-8-8888--|
E|--1-11111111111111--9-9-9999--8-8-8888--|
      **************

e|--------------------------------------------------------------------------|
B|--------------------------------------------------------------------------|
G|--------------------------------------------------------------------------|
D|--1-11111111111111--9-9-9999-99-9-9--8-8-8888-88-8888-88-8888--9-99-8-88--|
A|--1-11111111111111--9-9-9999-99-9-9--8-8-8888-88-8888-88-8888--9-99-8-88--|
E|--1-11111111111111--9-9-9999-99-9-9--8-8-8888-88-8888-88-8888--9-99-8-88--|
      **************

Chorus: Guitar 1

e|----------------------------------------|
B|----------------------------------------|
G|--5-5-5555-5-5-5555---------------------|
D|--5-5-5555-5-5-5555--6-6-6666-8-8-8888--| (3X)
A|--3-3-3333-3-3-3333--6-6-6666-8-8-8888--|
E|---------------------6-6-6666-8-8-8888--|

e|-------------------------------------------------------------|
B|-------------------------------------------------------------|
G|--5-5-5555-5-5-5555------------------------------------------|
D|--5-5-5555-5-5-5555--6-6-6666--8-8-8888--9-9-9999--8-8-8888--|
A|--3-3-3333-3-3-3333--6-6-6666--8-8-8888--9-9-9999--8-8-8888--|
E|---------------------6-6-6666--8-8-8888--9-9-9999--8-8-8888--|

e|--------------------------------------------------------------------|
B|--------------------------------------------------------------------|
G|--------------------------------------------------------------------|
D|--1-111111-6-4-6-4-1-111111-6-4-6-4-1-111111-6-4-6-4-1-111111-8-88--|
A|--1-111111-6-4-6-4-1-111111-6-4-6-4-1-111111-6-4-6-4-1-111111-8-88--|
E|--1-111111-6-4-6-4-1-111111-6-4-6-4-1-111111-6-4-6-4-1-111111-8-88--|
                                                                \  /
                                                                BEND
e|----------------------------------------|                          
B|----------------------------------------|
G|--5-5-5555-5-5-5555---------------------|
D|--5-5-5555-5-5-5555--6-6-6666-8-8-8888--| (3X)
A|--3-3-3333-3-3-3333--6-6-6666-8-8-8888--|
E|---------------------6-6-6666-8-8-8888--|                                                                

e|-------------------------------------------------------------|
B|-------------------------------------------------------------|
G|--5-5-5555-5-5-5555------------------------------------------|
D|--5-5-5555-5-5-5555--6-6-6666--8-8-8888--9-9-9999--8-8-8888--|
A|--3-3-3333-3-3-3333--6-6-6666--8-8-8888--9-9-9999--8-8-8888--|
E|---------------------6-6-6666--8-8-8888--9-9-9999--8-8-8888--|

End: Guitar 1

e|--------------------------------------------------------------------|
B|--------------------------------------------------------------------|
G|--------------------------------------------------------------------|
D|--1-111111-6-4-6-4-1-111111-6-4-6-4-1-111111-6-4-6-4-1-111111-8-88--| (2X)
A|--1-111111-6-4-6-4-1-111111-6-4-6-4-1-111111-6-4-6-4-1-111111-8-88--|
E|--1-111111-6-4-6-4-1-111111-6-4-6-4-1-111111-6-4-6-4-1-111111-8-88--|
                                                                \  /
                                                                BEND
e|--------------------------------------------------------------------|
B|--------------------------------------------------------------------|
G|--------------------------------------------------------------------|
D|--8----/\----/\----/\----/\----/\----/\----/\----/\----/\-----1--1--|
A|--8---/--\--/--\--/--\--/--\--/--\--/--\--/--\--/--\--/--\----1--1--|
E|--8--/----\/----\/----\/----\/----\/----\/----\/----\/----\---1--1--|
                             CrAzY BeNd

Any Questions, Comments, Requests, Email Me
ramone_ussc@hotmail.com
Comments