Misfits - She Chords & Tabs

 

She Chords & Tabs

Misfits Chords & Tabs

Version: 1 Type: Tab 0 ratings
1 star 2 stars 3 stars 4 stars 5 stars
comments

She Tab

   
MISFITS
SHE - Static Age / Legacy Of Brutality (guitar) version
by guillermo luppi
==================
Note:  The D and C notes are played by the bass; a palm-muted guitar 
       doubles the notes.  It also sounds like there is a second guitar 
       playing the A chord continuously through the D and C notes.

  bass bridge:
G|-----------------------------------------------------------------|
D|-------7---5-----------5---3-----------3---1---------------------|
A|-------------7-5-------------5-3-------------3-1---------3-5-3-5-|
E|-5---------------3---------------1---------------3---5-----------|

  bass fill:                          bass end:
G|---------------------------------| |-----------------|
D|-7-7-7-7-7-7-7-7-7-5---5---------| |-7-7-5---7-------|
A|---------------------7---7-6-5-3-| |-------7-0-------|
E|---------------------------------| |-----------------|

 A (D C) G A (2x)
 A  G A      (4x)
 A  G  F  G  (2x) w/bass bridge (2x)
 A                w/bass fill
 A (D C) G A (2x)
 A  G A      (2x)
 G A         (2x)
 A                w/bass end
===========


#

Date: Thu, 6 Nov 1997 16:49:07 -0600
From: Tom Tanto 
To: guitar@olga.net
Subject: TAB:'She' by 'MISFITS'


    Song: She
Album(s): Cough/Cool
          Legacy Of Brutality
          Collection I
          Box Set
          Violent World: A Tribute to the Misfits*
  Artist: the MISFITS (Written by Glenn Danzig)
          *Snapcase

      ~Transcribed by Eric Carroll tomtanto@sgi.net (work e-mail address)~


           -> Tune Down  Step or, Standard depending on the recording
                       *Snapcase tunes down to D (I think)
[ Tab from: http://www.guitartabs.cc/tabs/m/misfits/she_tab.html ]
Chords:
       A5                       G5                       F5
  |-|-|-X-X-X              |-|-|-X-X-X              ======X=X=X <- nut
   | | | | |<- 5th fret   | | | | |<- 3rd fret   | | | | |
  |-|-|-|-|-|              |-|-|-|-|-|              |-|-|-|-|-|
  | | | | | |              | | | | | |              | | | | | |
  |-|-|-|-|-|              |-|-|-|-|-|              |-|-|-|-|-|
  |   | | |              |   | | |              |   | | |
  |-|-|-|-|-|              |-|-|-|-|-|              |-|-|-|-|-|
  A E A                    G D G                    F C F

       A?
  |-|-|-X-X-X
    | | | |<- 5th fret
  |-|-|-|-|-|
  | | | | | |
  |-|-|-|-|-|
  | |  | | |
  |-|-|-|-|-|
  A D A

   Main Riff:
      A5             A? A5  A? A5  G5             A5        
E||-------------------------------------------------------------------------
B||-------------------------------------------------------------------------
G||-----------------------------------------------------------------------
D||---7--7-7-7-7-7-7-7--7-7-7--7-7--5--5-5-5-5--5--7------------------------
A||---7--7-7-7-7-7-7-5--7-7-5--7-7--5--5-5-5-5--5--7------------------------
E||---5--5-5-5-5-5-5-5--5-5-5--5-5--3--3-3-3-3--3--5------------------------

[Riff] (2)

A5                             G5                 A5
She walks out with empty arms, machine gun in her hand.
A5                          G5          A5
She is good and she is bad, no one understands.
A5                        G5            A5
She walked in in silence, never spoke a word.
A5                      G5                A5
She's got a rich daddy, she's her daddy's girl.

A5        G5          F5       G5
She loves naked sin.  He loves evil sex.
A5      G5            F5       G5
She has lost control. They are growing old.

[Riff] (2)

A5                        G5                A5
She will hide in silence, then her day will come.
A5                    G5            A5
She was virgin vixen, she is on the run.
G5            A5
She is on the run.
A5 [Riff]                      A5
She is on the ruuuu-
Comments