Misfits - Scream Chords & Tabs

 

Scream Chords & Tabs

Misfits Chords & Tabs

Version: 5 Type: Tab 0 ratings
1 star 2 stars 3 stars 4 stars 5 stars
comments

Scream Tab

   
-------------------------------------------------------------------------------
		       Scream (demo version) - Misfits
-------------------------------------------------------------------------------
Tabbed by: Astrozombie138(Antero Sosa)

Tuning: 1/2 step down

*This the demo version of Scream that is on Cuts from The Crypt.
**I am sure this is not 100% correct but i am still working on it.

(intro)
eb|---------------------------------------------------------------------------|
Bb|---------------------------------------------------------------------------|
Gb|---------------------------------------------------------------------------|
Db|---------------------------------------------------------------------------|
Ab|--/8~--3~--5~--1~--8~--3~-4~----8~--3~--2~--1~--8~--4~--3~-----------------|
Eb|---------------------------------------------------------------------------|

(riff 2)
eb|---------------------------------------------------------------------------|
Bb|---------------------------------------------------------------------------|
Gb|---------------------------------------------------------------------------|
Db|------------------5:--6:------------------5:-------------------------------|
Ab|--8:--6:--4:--8:--3:--4:--8:--6:--4:--8:--3:----4:---(feedback)------------|
Eb|--6:--4:--2:--6:----------6:--4:--2:--6:--4:----2:-------------------------|

(riff 3)
eb|---------------------------------------------------------------------------|
Bb|---------------------------------------------------------------------------|
Gb|---------------------------------------------------------------------------|
Db|---------------------------------------------------------------------------|
Ab|--6--6-6-6-6-6-6-6-6-6-6-6-6--8--8-8-8-8-8-8-8-8-8-8-8-8--4--4-4-4-4-4-4---|
Eb|--4--4-4-4-4-4-4-4-4-4-4-4-4--6--6-6-6-6-6-6-6-6-6-6-6-6--2--2-2-2-2-2-2---|
(PM)    . . . . . . . . . . . .     . . . . . . . . . . . .     . . . . . .

eb|---------------------------------------------------------------------------|
Bb|---------------------------------------------------------------------------|
Gb|---------------------------------------------------------------------------|
Db|--6--6-6-6-6-6-6-----------------------------------------------------------|
Ab|--4--4-4-4-4-4-4--6--6-6-6-6-6-6-6-6-6-6-6-6--8--8-8-8-8-8-8-8-8-8-8-8-8---|
Eb|------------------4--4-4-4-4-4-4-4-4-4-4-4-4--6--6-6-6-6-6-6-6-6-6-6-6-6---|
(PM)    . . . . . .     . . . . . . . . . . . .     . . . . . . . . . . . . 

eb|---------------------------------------------------------------------------|
Bb|---------------------------------------------------------------------------|
Gb|---------------------------------------------------------------------------|
Db|-----------------------------6--6-6-6-6-6-6-6-6----------------------------|
Ab|--4--4-4-4-4-4-4-4-4-4-4-----4--4-4-4-4-4-4-4-4-6--6-6-6-6-6-6-6-6-6-6-6-6-|
Eb|--2--2-2-2-2-2-2-2-2-2-2------------------------4--4-4-4-4-4-4-4-4-4-4-4-4-|
(PM)    . . . . . . . . . .        . . . . . . . .    . . . . . . . . . . . .

(riff 4a)
eb|---------------------------------------------------------------------------|
Bb|---------------------------------------------------------------------------|
Gb|---------------------------------------------------------------------------|
Db|---------------------------------------------------------------------------|
Ab|--8--8-8-8-8-8-8--6--6-6-6-6-6-6--4--4-4-4-4-4-4-4-4-4-4-------------------|
Eb|--6--6-6-6-6-6-6--4--4-4-4-4-4-4--2--2-2-2-2-2-2-2-2-2-2-------------------|
(PM)    . . . . . .     . . . . . .     . . . . . . . . . .
[ Tab from: http://www.guitartabs.cc/tabs/m/misfits/scream_tab_ver_5.html ]
(riff 4b)
eb|---------------------------------------------------------------------------|
Bb|---------------------------------------------------------------------------|
Gb|---------------------------------------------------------------------------|
Db|------------------6--6-6-6-6-6-6-------------------------------------------|
Ab|--8--8-8-8-8-8-8--6--6-6-6-6-6-6--4--4-4-4-4-4-4-4-4-4-4-------------------|
Eb|--6--6-6-6-6-6-6--4--4-4-4-4-4-4--2--2-2-2-2-2-2-2-2-2-2-------------------|
(PM)    . . . . . .     . . . . . .     . . . . . . . . . .

(riff 5)
eb|---------------------------------------------------------------------------|
Bb|---------------------------------------------------------------------------|
Gb|---------------------------------------------------------------------------|
Db|---------------------------------------------------------------------------|
Ab|--6-6-6-6-6-6-6-6-6-6-6-6-6--8--8-8-8-8-8-8-8-8-8-8-8-8--4--4-4-4-4-4-4----|
Eb|--4-4-4-4-4-4-4-4-4-4-4-4-4--6--6-6-6-6-6-6-6-6-6-6-6-6--2--2-2-2-2-2-2----|
(PM) . . . . . . . . . . . . .     . . . . . . . . . . . .     . . . . . .

eb|---------------------------------------------------------------------------|
Bb|---------------------------------------------------------------------------|
Gb|---------------------------------------------------------------------------|
Db|--7--7-7-7-7-7-7-----------------------------------------------------------|
Ab|--5--5-5-5-5-5-5--7--7-7-7-7-7-7-7-7-7-7-7-7-------------------------------|
Eb|------------------5--5-5-5-5-5-5-5-5-5-5-5-5-------------------------------|
(PM)    . . . . . .     . . . . . . . . . . . .

(riff 6)
eb|---------------------------------------------------------------------------|
Bb|---------------------------------------------------------------------------|
Gb|---------------------------------------------------------------------------|
Db|---------------------------------------------------------------------------|
Ab|---------------------------------------------------------------------------|
Eb|--6-4-6--4-6-4--6-4-6--4-6-4--6-4-6--4-6-4--4-4-4-4-2-1--------------------|

(riff 7)
eb|---------------------------------------------------------------------------|
Bb|---------------------------------------------------------------------------|
Gb|---------------------------------------------------------------------------|
Db|--------------5--5-5-5-5--6--6-6-6-6--8--8-8-8-8--10--10-10-10-10----------|
Ab|--8--8-8-8-8--3--3-3-3-3--4--4-4-4-4--6--6-6-6-6--8---8--8--8--8-----------|
Eb|--6--6-6-6-6---------------------------------------------------------------|

eb|---------------------------------------------------------------------------|
Bb|---------------------------------------------------------------------------|
Gb|---------------------------------------------------------------------------|
Db|-11--11-11-11-11--13--13-13-13-13------------------------------------------|
Ab|-9---9--9--9--9---11--11-11-11-11--8-8-8-8-8-8-8-8-------------------------|
Eb|-----------------------------------6-6-6-6-6-6-6-6-------------------------|
(PM)                                  . . . . . . . .

(outro)
eb|---------------------------------------------------------------------------|
Bb|---------------------------------------------------------------------------|
Gb|---------------------------------------------------------------------------|
Db|----------------------------------------------------------8----------------|
Ab|----------------------------------------------------------8----------------|
Eb|--6-4-6--4-6-4--6-4-6--4-6-4--6-4-6--4-6-4--4-4-4-4-2-1---6----------------|


intro       1x
riff 2      1x
riff 3      1x
riff 4a     2x
riff 4b     1x
riff 3      1x
riff 4a     2x
riff 4b     1x
riff 4a     1x
riff 5      1x
riff 4a     2x
riff 4b     1x
riff 4a     1x
riff 6      1x
riff 4a     2x
riff 4b     1x
riff 4a     1x
riff 6      1x
riff 7      1x
outro       1x

| :  Let ring
| PM Palm mute
| /  slide up
| \  slide down
| h  hammer-on
| p  pull-off
| ~  vibrato
| +  harmonic
| x  Mute note
===============================================================================
Comments