Misfits - Scream Chords & Tabs

 

Scream Chords & Tabs

Misfits Chords & Tabs

Version: 3 Type: Tab 0 ratings
1 star 2 stars 3 stars 4 stars 5 stars
comments

Scream Tab

   
ScReAm!
By:The Misfits 
Transcribed By:Michael

Well, all the other tabs are good but not all they way right. Im just
tryin to make it 100% correct. This is one of my faves...GO MISFITS!

Guitar Tuning:(Eb-Ab-Db-Gb-Bb-Eb)

Beggining Fill-in:
eb}-----}
Bb}-----}
Gb}--4--}
Db}--4--}
Ab}--2--}
Eb}-----}

Intro:(Small Feedback)
eb}---------------------------------------}
Bb}---------------------------------------}
Gb}---------------------------------------}
Db}---------------------------------------}
Ab}2/9--4-5--2-9-4-5~--2/9--4-5--2--9--5-4}
Eb}---------------------------------------}
                   
eb}----------------------------------------}
Bb}----------------------------------------}
Gb}4--2-----4--7-----4--2-7~--4--2---------}
Db}4--2-5~--4--7-5~--4--2-7---4--2-5~------}
Ab}2--0-5---2--5-5---2--0-5---2--0-5-----9/}
Eb}-----3--------3-----------------3-------}

Verses:
Part 1 of verse:
eb}-------------------------------------------}
Bb}-------------------------------------------}
Gb}22222222222-4444444444-------7-22222222222-}
Db}22222222222-4444444444-5-5-5-7-22222222222-}
Ab}00000000000-2222222222-5-5-5-5-00000000000-}
Eb}-----------------------3-3-3---------------}

Part 2 of verse:
eb}---------------------------------------------}
Bb}---------------------------------------------}
Gb}44444444444-------------7-7-7-7-2222222222222}
Db}44444444444-55555555555-7-7-7-7-2222222222222}
Ab}22222222222-55555555555-5-5-5-5-0000000000000}
Eb}------------33333333333----------------------}

Chorus:
eb}-------------------------}
Bb}-------------------------}
Gb}44444-222222-------------}
Db}44444-222222-555555555555}
Ab}22222-000000-555555555555}
Eb}-------------333333333333}

Fill-In 2:
eb}-------------}
Bb}-------------}
Gb}2222222222222}
Db}2222222222222}
Ab}0000000000000}
Eb}-------------}                          
pm .............

Other Riff 1:
eb}---------------------------------------------}
Bb}---------------------------------------------}
Gb}44444444444-------------7-7-7-7-2222222222222}
Db}44444444444-55555555555-7-7-7-7-2222222222222}
Ab}22222222222-55555555555-5-5-5-5-0000000000000}
Eb}------------33333333333----------------------}

Other Riff 2:
eb}---------------------------------------}
Bb}---------------------------------------}
Gb}4-4-4-4-4-4-4-4-4-4-4-4-4-4-4-4--------}
Db}4-4-4-4-4-4-4-4-4-4-4-4-4-4-4-4-555-444}
Ab}2-0-2-0-2-2-0-2-0-2-2-0-2-0-2-2-555-444}
Eb}--------------------------------333-222}

End On:
eb}-----}
Bb}-----}
Gb}--4--}
Db}--4--}
Ab}--2--}
Eb}-----}
[ Tab from: http://www.guitartabs.cc/tabs/m/misfits/scream_tab_ver_3.html ]
Thanx My Email is:guitarzan413@netscape.net
===========          Artist: The Misfits
          Title:  Scream !
          Album:  Famous Monsters
          Transcribed by: Pierre Mathieu
          Email: el_camello@hotmail.com
          
          Intro
          ------------------------------------------------------------------------------
          -/8-4-5-2~~-8-4-5~~-8-4-5-2~~-8-5-4~~~----------------------------------------
          ------------------------------------------------------------------------------
          (With Tremolo and Feedback)
          
          -----------------4-6-7--------------------------------------------------------
          -9-7-5---9-7-5---2-4-5---9-7-5------------------------------------------------
          -7-5-3---7-5-3-----------7-5-3------------------------------------------------
          
          Verse
          -----------------------------------------7-7-7-7------------------------------
          -7-7-7-7-7-7-7-7-9-9-9-9-9-9-9-9-5-5-5-5-5-5-5-5-7-7-7-7-7-7-7-7--------------
          -5-5-5-5-5-5-5-5-7-7-7-7-7-7-7-7-3-3-3-3---------5-5-5-5-5-5-5-5--------------
          
          Verse2
          ---------------------------------7-7-7-7-7-7-7-7------------------------------
          -9-9-9-9-9-9-9-9-5-5-5-5-5-5-5-5-5-5-5-5-5-5-5-5-7-7-7-7-7-7-7-7--------------
          -7-7-7-7-7-7-7-7-3-3-3-3-3-3-3-3-----------------5-5-5-5-5-5-5-5--------------
          
          Chorus
          ------------------------------------------------------------------------------
          -9-9-9-9-7-7-7-7-5-5-5-5-5-5-5-5----------------------------------------------
          -7-7-7-7-5-5-5-5-3-3-3-3-3-3-3-3----------------------------------------------
          
          Chorus2
          -4-4-4-4-6-6-6-6-7-7-7-7-7-7-7-7----------------------------------------------
          -2-2-2-2-4-4-4-4-5-5-5-5-5-5-5-5----------------------------------------------
          ------------------------------------------------------------------------------
          
          Fill1
          ------------------------------------------------------------------------------
          -7-7-7-7-7-7-7-7-7------------------------------------------------------------
          -5-5-5-5-5-5-5-5-5------------------------------------------------------------
           . .   . .   . .
          
          Outro Thingy
          -------------------------------------------------------------------------------
          -9-7/97/9--9-7/97/9--9-7/97/9--7-7-5-5-----------------------------------
          -7-5/75/7--7-5/75/7--7-5/75/7--5-5-3-3-----------------------------------
          
          _______________________________________________________________________________
          SongFlow
          Intro
          Verse + Verse2
          Chorus   X 2
          Verse + Verse2
          Chorus   X 2
          Chorus2 
          Chorus 
          Fill1
          Verse2
          Outro    X 2
          Chorus   X 3
          Chorus2  X 2
          Chorus
          Outro    X 2 
          END on B
          _______________________________________________________________________________
          Lyrics
          
          Whoa oh oh
          Whoa oh oh
          Whoa oh oh
          Scream!!
          
          A chill runs up your spine
          And crawls into your brain
          The freezing touch of fear
          It's driving me insane
          Although you try to fight
          Dragged from the silence where you hide
          Till you scream
          Till you scream
          
          A chill runs up your spine
          And crawls into your brain
          The freezing touch of fear
          It's driving me insane
          Although you try to fight
          Dragged from the silence where you hide
          
          Till you scream
          Till you scream
          Scream
          I can't wait to hear you scream
          
          It's driving me insane
          Although you try to fight
          Dragged from the silence where you hide
          Till you scream
          Scream
          
          I can't wait to hear you
          I can't wait to hear you
          Scream
          I can't wait to hear you
          I can't wait to hear you
          Scream! Scream! Scream!
Comments