Misfits - Scream Chords & Tabs

 

Scream Chords & Tabs

Misfits Chords & Tabs

Version: 1 Type: Tab 1 rating
1 star 2 stars 3 stars 4 stars 5 stars
comments

Scream Tab

misfits
  scream
---------
killer song !

 intro gtr.1
E|---------------------------------
B|---------------------------------
G|---------------------------------
D|---------------------------------
A|-/8-3-4\1--8-4-3--8-3-4-1--8-4-3-
E|---------------------------------

 intro gtr.2
E|----------------------------
B|----------------------------
G|-------------------6--------
D|-8-6-4--8-6-4--8-6-6--8-6-4-
A|-8-6-4--8-6-4--8-6-4--8-6-4-
E|-6-4-2--6-4-2--6-4----6-4-2-
[ Tab from: http://www.guitartabs.cc/tabs/m/misfits/scream_tab.html ]
Verse
E|------------------------------------------------------------------------------------
B|------------------------------------------------------------------------------------
G|----------------------------------6-6---------------------------6-6-6-6-6-----------
D|-6-6-6-6-6--8-8-8-8-8--4-4-4-4-4--6-6-6-6--8-8-8-8-8--4-4-4-4-4-6-6-6-6-6-6-6-6-6-6-
A|-6-6-6-6-6--8-8-8-8-8--4-4-4-4-4--4-4-6-6--8-8-8-8-8--4-4-4-4-4-4-4-4-4-4-6-6-6-6-6-
E|-4-4-4-4-4--6-6-6-6-6--2-2-2-2-2------4-4--6-6-6-6-6--2-2-2-2-2-----------4-4-4-4-4-

chorus
E|--------------------------------
B|--------------------------------
G|--------------------------------
D|-8-8-8-8-8-6-6-6-6-6-4-4-4-4-4--
A|-8-8-8-8-8-6-6-6-6-6-4-4-4-4-4--
E|-6-6-6-6-6-4-4-4-4-4-2-2-2-2-2--
Comments