Misfits - Scarecrow Man Chords & Tabs

 

Scarecrow Man Chords & Tabs

Misfits Chords & Tabs

Version: 1 Type: Tab 0 ratings
1 star 2 stars 3 stars 4 stars 5 stars
comments

Scarecrow Man Tab

   
intro
eb:---------------------------------|
Bb:---------------------------------|
Gb:---------------------------------|
Db:---------------------------------|    x4
Ab:-------------------------------2-|
Eb:0--7p0-7p0-0-7p0-7p0-0-7p0-7p0-0-|

verse intro
eb:----------------------------------|
Bb:----------------------------------|
Gb:----------------------------------|
Db:----------------------------------|   x2
Ab:----------------------------------|
Eb:0-3-0-3-0-3--0-3-0-3-0-3--6-6-6---|

verse
eb:----------------------------------|
Bb:----------------------------------|
Gb:----------------------------------|
Db:----------------------------------|   x4
Ab:----------------------------------|
Eb:0-3-0-3-0-3--0-3-0-3-0-3--6-6-6---|
pm ...............................

pre chorus
eb:----------------|
Bb:----------------|
Gb:7-5-4-7-5-4-----|
Db:7-5-4-7-5-4-----|
Ab:5-3-2-5-3-2-(3)-|
Eb:----------------|

chorus
eb:--------------------------------|
Bb:--------------------------------|
Gb:--------------------------------|
Db:--------------------------------|   x2
Ab:--------------------------------|
Eb:0-3-0-3-03-0-3-0-3-0-3-/7-5-3-2-|

verse
eb:----------------------------------|
Bb:----------------------------------|
Gb:----------------------------------|
Db:----------------------------------|   x4
Ab:----------------------------------|
Eb:0-3-0-3-0-3--0-3-0-3-0-3--6-6-6---|
pm ...............................

pre chorus
eb:----------------|
Bb:----------------|
Gb:7-5-4-7-5-4-----|
Db:7-5-4-7-5-4-----|
Ab:5-3-2-5-3-2-(3)-|
Eb:----------------|

chorus
eb:--------------------------------|
Bb:--------------------------------|
Gb:--------------------------------|
Db:--------------------------------|   x4
Ab:--------------------------------|
Eb:0-3-0-3-03-0-3-0-3-0-3-/7-5-3-2-|


solo start F# G
chorus
eb:--------------------------------|
Bb:--------------------------------|
Gb:--------------------------------|
Db:4--5----------------------------|
Ab:4--5----------------------------|
Eb:2--3----------------------------|

solo

[ Tab from: http://www.guitartabs.cc/tabs/m/misfits/scarecrow_man_tab.html ]
|----------------------------------------------|
|---------10-12-10-----------------------------|
|-9-11-12----------12-11-12-11--12-11-9/\/\/\--|
|----------------------------------------------|
|----------------------------------------------|
|----------------------------------------------|

|--------------------------------------------------------------------------|
|10---8---7---8----10----12----15----13-----12-----------------------------|
|12^--10^-9^--10^--12^---14^---17^---15^----14^-------17/\/\/\-------------|
|--------------------------------------------------------------------------|
|--------------------------------------------------------------------------|
|--------------------------------------------------------------------------|

chorus
eb:--------------------------------|
Bb:--------------------------------|
Gb:--------------------------------|
Db:--------------------------------|   x2
Ab:--------------------------------|
Eb:0-3-0-3-03-0-3-0-3-0-3-/7-5-3-2-|

verse
eb:----------------------------------|
Bb:----------------------------------|
Gb:----------------------------------|
Db:----------------------------------|   x4
Ab:----------------------------------|
Eb:0-3-0-3-0-3--0-3-0-3-0-3--6-6-6---|
pm ...............................

pre chorus
eb:----------------|
Bb:----------------|
Gb:7-5-4-7-5-4-----|
Db:7-5-4-7-5-4-----|
Ab:5-3-2-5-3-2-(3)-|
Eb:----------------|

chorus
eb:--------------------------------|
Bb:--------------------------------|
Gb:--------------------------------|
Db:--------------------------------|   x4
Ab:--------------------------------|
Eb:0-3-0-3-03-0-3-0-3-0-3-/7-5-3-2-|

outro
eb:---------------------------------|
Bb:---------------------------------|
Gb:---------------------------------|
Db:---------------------------------|    x3
Ab:-------------------------------2-|
Eb:0--7p0-7p0-0-7p0-7p0-0-7p0-7p0-0-|

eb:---------------------------------------|
Bb:---------------------------------------|
Gb:---------------------------------------|
Db:---------------------------------------|
Ab:---------------------------------------|
Eb:0--7p0-7p0-0-7p0-7p0-0-7p0-7p0-7-5-3-2-|
Comments