Misfits - Mommy Can I Go Out And Kill Tonight Chords & Tabs

 

Mommy Can I Go Out And Kill Tonight Chords & Tabs

Misfits Chords & Tabs

Version: 1 Type: Tab 0 ratings
1 star 2 stars 3 stars 4 stars 5 stars
comments

Mommy Can I Go Out And Kill Tonight Tab

Mommy, Can I Go Out And Kill Tonight?

Transcribed by : Look_Upon_Me@yahoo.com
 
    Singled Out The Kids..
E  :----------------|----------------|------------------------|
B  :----------------|----------------|------------------------|
G  :----------------|----------------|------------------------|
D  :7-7-7-7-7-7-7-7-|7-7-7-7-7-7-7-7-|10-10-10-10-10-10-10-10-|
A  :7-7-7-7-7-7-7-7-|7-7-7-7-7-7-7-7-|10-10-10-10-10-10-10-10-|
E  :5-5-5-5-5-5-5-5-|5-5-5-5-5-5-5-5-|-8--8--8--8--8--8--8--8-|

E  :----------------|----------------|------------------------|
B  :----------------|----------------|------------------------|
G  :----------------|----------------|------------------------|
D  :7-7-7-7-7-7-7-7-|7-7-7-7-7-7-7-7-|10-10-10-10-10-10-10-10-|
A  :7-7-7-7-7-7-7-7-|7-7-7-7-7-7-7-7-|10-10-10-10-10-10-10-10-|
E  :5-5-5-5-5-5-5-5-|5-5-5-5-5-5-5-5-|-8--8--8--8--8--8--8--8-|

E  :----------------|----------------|------------------------|
B  :----------------|----------------|------------------------|
G  :----------------|----------------|------------------------|
D  :7-7-7-7-7-7-7-7-|7-7-7-7-7-7-7-7-|10-10-10-10-10-10-10-10-|
A  :7-7-7-7-7-7-7-7-|7-7-7-7-7-7-7-7-|10-10-10-10-10-10-10-10-|
E  :5-5-5-5-5-5-5-5-|5-5-5-5-5-5-5-5-|-8--8--8--8--8--8--8--8-|

E  :-----------------|----------------|----------------|
B  :-----------------|----------------|----------------|
G  :-----------------|----------------|----------------|
D  :7b-----------7-*-|----------------|----------------|
A  :7b-----------7-*-|----------------|----------------|
E  :5b-----------5-*-|----------------|----------------|
[ Tab from: http://www.guitartabs.cc/tabs/m/misfits/mommy_can_i_go_out_and_kill_tonight_tab.html ]
E  :|*------------------|------------------|------------------|
B  :|*------------------|------------------|------------------|
G  :| ------------------|------------------|------------------|
D  :| 7-7-10-10-7-7-5-5-|7-7-10-10-7-7-5-5-|7-7-10-10-7-7-5-5-|
A  :| 7-7-10-10-7-7-5-5-|7-7-10-10-7-7-5-5-|7-7-10-10-7-7-5-5-|
E  :| 5-5--8--8-5-5-3-3-|5-5--8--8-5-5-3-3-|5-5--8--8-5-5-3-3-|

E  :------------------|------------------|------------------|
B  :------------------|------------------|------------------|
G  :------------------|------------------|------------------|
D  :7-7-10-10-7-7-5-5-|7-7-10-10-7-7-5-5-|7-7-10-10-7-7-5-5-|
A  :7-7-10-10-7-7-5-5-|7-7-10-10-7-7-5-5-|7-7-10-10-7-7-5-5-|
E  :5-5--8--8-5-5-3-3-|5-5--8--8-5-5-3-3-|5-5--8--8-5-5-3-3-|

E  :------------------|------------------|----------------*3|
B  :------------------|------------------|----------------*||
G  :------------------|------------------|---------------- ||
D  :7-7-10-10-7-7-5-5-|7-7-10-10-7-7-5-5-|5--------------- ||
A  :7-7-10-10-7-7-5-5-|7-7-10-10-7-7-5-5-|5--------------- ||
E  :5-5--8--8-5-5-3-3-|5-5--8--8-5-5-3-3-|3--------------- ||

E  :------------------|------------------|------------------|
B  :------------------|------------------|------------------|
G  :------------------|------------------|------------------|
D  :7-7-10-10-7-7-5-5-|7-7-10-10-7-7-5-5-|7-7-10-10-7-7-5-5-|
A  :7-7-10-10-7-7-5-5-|7-7-10-10-7-7-5-5-|7-7-10-10-7-7-5-5-|
E  :5-5--8--8-5-5-3-3-|5-5--8--8-5-5-3-3-|5-5--8--8-5-5-3-3-|

E  :------------------|------------------|------------------|
B  :------------------|------------------|------------------|
G  :------------------|------------------|------------------|
D  :7-7-10-10-7-7-5-5-|7-7-10-10-7-7-5-5-|7-7-10-10-7-7-5-5-|
A  :7-7-10-10-7-7-5-5-|7-7-10-10-7-7-5-5-|7-7-10-10-7-7-5-5-|
E  :5-5--8--8-5-5-3-3-|5-5--8--8-5-5-3-3-|5-5--8--8-5-5-3-3-|

E  :------------------|------------------|----------------|
B  :------------------|------------------|----------------|
G  :------------------|------------------|----------------|
D  :7-7-10-10-7-7-5-5-|7-7-10-10-7-7-5-5-|5---------------|
A  :7-7-10-10-7-7-5-5-|7-7-10-10-7-7-5-5-|5---------------|
E  :5-5--8--8-5-5-3-3-|5-5--8--8-5-5-3-3-|3---------------|
Comments