Misfits - Magic Moment Chords & Tabs

 

Magic Moment Chords & Tabs

Misfits Chords & Tabs

Version: 1 Type: Bass Tab 0 ratings
1 star 2 stars 3 stars 4 stars 5 stars
comments

Magic Moment Bass Tab

Band: Misfits
Song: This Magic Moment
Album: Project 1950 (2003)


INTRO 
G|------------------------------------------------------------------------|
D|------------------------------------------------------------------------|
A|--5-5-5-5-5-5-5-5---3-3-3-3-3-3-3-3-3-----------------------------------|
E|---------------------------------------1-1-1-1-1-1-1-1---3-3-3-3-3-3----|
[ Tab from: http://www.guitartabs.cc/tabs/m/misfits/magic_moment_btab.html ]
Verse/Chorus/Solo
G|------------------------------------------------------------------------|
D|------------------------------------------------------------------------|
A|--------------------------------0-0-0-0-0-0-0-0---2-2-2-2-2-2-2-2-------|
E|-2-2-2-2-2-2-2---0-0-0-0-0-0-0------------------------------------------|

End
G|--------|
D|--------|
A|--------|
E|---2----|

I Know, I know. it's embarrasing that i actually tabbed this... misfits rule and all
but this song is way too easy. I must say though, it's too deadly... marky and dez
rawk, they really re-incarnated this song good. Props to Jerry Only as well, wicked
singing. Rate 5 plz... Peace

- Corbs
Comments