Misfits - Lost In Space Chords & Tabs

 

Lost In Space Chords & Tabs

Misfits Chords & Tabs

Version: 3 Type: Tab 0 ratings
1 star 2 stars 3 stars 4 stars 5 stars
comments

Lost In Space Tab

   
-------------------------------------------------------------------------------
			     Lost in Space - Misfits
-------------------------------------------------------------------------------
Tabbed by: Astrozombie138

Tuning: 1/2 step down

(intro)
eb|-----------------------|
Bb|-----------------------|
Gb|-----------------------|
Db|--3PH-2PH-0PH----------|
Ab|---------------3-2-0---|
Eb|-----------------------|

(riff 2)
eb|-------------------------------------------------------|
Bb|-------------------------------------------------------|
Gb|-------------------------------------------------------|
Db|----------------------------3--3-3--3-3----------------|
Ab|--5--5-5--5-5--5--5-5--5-5--1--1-1--1-1--3--3-3--3-3---|
Eb|--3--3-3--3-3--3--3-3--3-3---------------1--1-1--1-1---|

(chorus a)                                                   (chorus b)
eb|----------------------------------------------------|----------------------|
Bb|----------------------------------------------------|----------------------|
Gb|----------------------------------------------------|----------------------|
Db|--8--8-8--8-8---------------------------------------|8--8-8-8-8------------|
Ab|--6--6-6--6-6--8--8-8--8-8--5--5-5--5-5--8--8-8--8-8|6--6-6-6-6--8--8-8-8-8|
Eb|---------------6--6-6--6-6--3--3-3--3-3--6--6-6--6-6|------------6--6-6-6-6|
[ Tab from: http://www.guitartabs.cc/tabs/m/misfits/lost_in_space_tab_ver_3.html ]
(riff 4a)                        (riff 4b)
eb|----------------------------|---------------------------------------------|
Bb|----------------------------|---------------------------------------------|
Gb|----------------------------|---------------------------------------------|
Db|------3--3-3-3-3------------|-----------------3--3-3-3-3------------------|
Ab|--5:--1--1-1-1-1-3--3-3-3-3-|--5-5-5-5-5-5-5--1--1-1-1-1--3--3-3-3-3------|
Eb|--3:-------------1--1-1-1-1-|--3-3-3-3-3-3-3--------------1--1-1-1-1------|
(PM)        .   .      .   .        .   .   .       .   .       .   .

(riff 5)
eb|---------------------------------------------------------------------------|
Bb|---------------------------------------------------------------------------|
Gb|---------------------------------------------------------------------------|
Db|---------------------------------------------------------------------------|
Ab|--2:----5-7-8-7-5--2:--7~---5-7-8-7-5--2NB---5-7-8-7-5--2:--7~---5-7-8:----|
Eb|--0:--0-3-5-6-5-3--0:-----0-3-5-6-5-3--0---0-3-5-6-5-3--0:-----0-3-5-6:----|

(outro)
eb|------------------------|
Bb|------------------------|
Gb|------------------------|
Db|--3-3-3-----------------|
Ab|--1-1-1--3-3-3---5:-----|
Eb|---------1-1-1-0-3:-----|

order:
intro    1x
verse    3x(slide down neck 2nd time and end with a G chord)
intro    1x
verse    8x(Some chords are held sometimes,end with pick scratch up the neck)
chorus a 3x
chorus b 1x 
riff 4a  1x
riff 4b  1x
riff 4a  2x(end with pick scratch up neck)
chorus a 3x
chorus b 1x
riff 5   1x
chorus a 3x
chorus b 1x(end with G chord)
chorus a 3x
chorus b 1x(end with G chord)
outro    3x


| PH Pinch harmonic
| NB Neck bend
| :  Hold chord
| /  slide up
| \  slide down
| h  hammer-on
| p  pull-off
| ~  vibrato
| +  harmonic
| x  Mute note
===============================================================================
Comments