Misfits - Lost In Space Chords & Tabs

 

Lost In Space Chords & Tabs

Misfits Chords & Tabs

Version: 2 Type: Tab 0 ratings
1 star 2 stars 3 stars 4 stars 5 stars
comments

Lost In Space Tab

   
Misfits - Lost in Space
Tabbed by mericlepunk
Standard tuning

Palm Muting = . . . 
Slide = /
R = let ring
B = bend
~ = Vibrato


Intro  (might be pinch harmonics)
E|---------------|
B|---------------|
G|---------------|
D|---------------|
A|-8-7-5-3-2-0---|
E|---------------|
    				                 
Verse 
E|-------------------------------|
B|-------------------------------|
G|----------33333333-------------|
D|-55555555-33333333-33333333----| 
A|-55555555-11111111-33333333----|
E|-33333333----------11111111----|
[ Tab from: http://www.guitartabs.cc/tabs/m/misfits/lost_in_space_tab_ver_2.html ]
Chorus
E|-----------------------|---------------|
B|-----------------------|---------------|
G|-8888------------------|8888-----------| 
D|-8888-8888-5555-8888---|8888-8888------|
A|-6666-8888-5555-8888---|6666-8888------|
E|------6666-3333-6666---|-----6666------|
Play this part 3 times	  

Bridge pt1           Bridge pt2         Bridge pt3
E|-------------------|------------------|--------------------|
B|-------------------|------------------|--------------------|
G|-------------------|----3b~-----------|--------------------|
D|-2r----2-5-7-8-7-5-|-2r---2-5-7-8-7-5-|-2r-----2-5-7-8-7-5-|
A|-2r----2-5-7-8-7-5-|-2r---2-5-7-8-7-5-|-2r-----2-5-7-8-7-5-|        
E|-0r----0-3-5-6-5-3-|-0r---0-3-5-6-5-3-|-0r-0-b-0-3-5-6-5-3-|
  

Order:
Intro           1x
Verse           3x
Intro           1x
Verse           8x   
Chorus          3x
Verse           4x with some palm muting thrown in
Chorus          3x
Bridge pt 1     1x
Bridge pt 2     1x
Bridge pt 3     1x   
Bridge pt 2     1x
Chorus          6x
Verse outro
Comments