Misfits - London Dungeon Chords & Tabs

 

London Dungeon Chords & Tabs

Misfits Chords & Tabs

Version: 1 Type: Tab 0 ratings
1 star 2 stars 3 stars 4 stars 5 stars
comments

London Dungeon Tab

   
Misfits - LONDON DUNGEON
========================
Main Riff:
E|---------------------------------|
B|---------------------------------| Slide between these
G|---------------------------------| notes on the E string.
D|---------------------------------|
A|---------------------------------|
E+-0-----7-----3---5-----3-----2---+
| |
| |
G+---------------------------------+
D|---------------------------------|
A|---------------------------------|
E|-0-0-0-0-0-0-0-0-5-5-5-3-3-3-2-2-|

Verse Riff:
Guitar: During the verses, the guitars play Emin chords
(and feedback) at the beginning of each measure.
Live, the guitar would double the bass riff.
Bass: Continues the Main Riff simile throughout the verses.
[ Tab from: http://www.guitartabs.cc/tabs/m/misfits/london_dungeon_tab.html ]
Chorus Riff:
E|---------------------------------|-0-------------------------------|
B|---------------------------------|-0-------------------------------|
G|---------------------------------|-0-------------------------------|
D|-2-2-3---2-2-3---2-2-3---2-2-3---|-2-------------------------------|
A|-2-2-3---2-2-3---2-2-3---2-2-3---|-2-------------------------------|
E+-0-0-1---0-0-1---0-0-1---0-0-1---|-0-------------------------------+
| pm> pm> pm> pm> w/feedback and random noise |
| |
G+---------------------------------|---------------------------------+
D|---------------------------------|---------------------------------|
A|---------------------------------|---------------------------------|
E+-0-0-1---0-0-1---0-0-1---0-0-1---|-0-------------------------------+
| |
| |
E+---------------------------------|---------------------------------+
B|---------------------------------|---------------------------------|
G|---------------------------------|---------------------------------|
D|---------------------------------|---------------------------------|
A|-8-------3-------8-------3-------|-7-------------------------------|
E|---------------------------------|---------------------------------|

Chorus End:
E|---------------------------------|---------------------------------|
B|---------------------------------|---------------------------------|
G|---------------------------------|---------------------------------|
D|-2-2-3---2-2-3---2-2-3---2-2-3---|-2-2-5---2-2-5---2-2-5---2-2-5---|
A|-2-2-3---2-2-3---2-2-3---2-2-3---|-2-2-5---2-2-5---2-2-5---2-2-5---|
E+-0-0-1---0-0-1---0-0-1---0-0-1---|-0-0-3---0-0-3---0-0-3---0-0-3---+
| pm> pm> pm> pm> pm> pm> pm> pm> |
| |
G+---------------------------------|---------------------------------+
D|---------------------------------|---------------------------------|
A|---------------------------------|---------------------------------|
E+-0-0-1---0-0-1---0-0-1---0-0-1---|-0-0-3---0-0-3---0-0-3---0-0-3---+
| |
| |
E+---------------------------------|---------------------------------+
B|---------------------------------|---------------------------------|
G|---------------------------------|---------------------------------|
D|---------------------------------|---------------------------------|
A|-8-------3-------8-------12------|-10------5-------10------14------|
E|---------------------------------|---------------------------------|

-songflow-
drums...
main riff (4x) bass only
main riff (4x) guitar enters
verse riff (4x)
main riff (2x)
verse riff (4x)
chorus riff (2x)
chorus end
main riff (2x)
verse riff (4x)
chorus riff (2x)
chorus end
main riff (2x) guitar doubles bass riff
verse riff (4x)
chorus riff (2x)
chorus end
main riff (4x) fade out...

Brought to you by: Carrey G. & Jane G.
Comments