Misfits - I Turned Into A Martian Chords & Tabs

 

I Turned Into A Martian Chords & Tabs

Misfits Chords & Tabs

Version: 3 Type: Tab 0 ratings
1 star 2 stars 3 stars 4 stars 5 stars
comments

I Turned Into A Martian Tab

   
-------------------------------------------------------------------------------
			I Turned into a Martian - Misfits
-------------------------------------------------------------------------------
Tabbed by: Astrozombie138

Tuning: standard

(intro)
e|-------------------------|
B|-------------------------|
G|-------------------------|
D|----------------8-8-8:---|
A|--6-6-6--8-8-8--6-6-6:---|
E|--4-4-4--6-6-6-----------|
    D U D  D U D  D U D

(riff 2)
e|---------------------------------------|
B|---------------------------------------|
G|---------------------------------------|
D|------------------------8-8------------|
A|--10-10-10-10-10-10-10--6-6--8-8-8-----|
E|--8--8--8--8--8--8--8--------6-6-6-----|

(riff 3a)
e|---------------------------------------|
B|---------------------------------------|
G|---------------------------------------|
D|--------------------8-8-8-8--8---------|
A|--6-6-6-6--8-8-8-8--6-6-6-6--6---8-----|
E|--4-4-4-4--6-6-6-6---------------6-----|
[ Tab from: http://www.guitartabs.cc/tabs/m/misfits/i_turned_into_a_martian_tab_ver_3.html ]
(riff 3b)
e|-------------------------|
B|-------------------------|
G|-------------------------|
D|-------------------------|
A|--6-6-6-6--8-8-8-8-------|
E|--4-4-4-4--6-6-6-6-------|

(riff 4)
e|-----------------------------------------------------------|
B|-----------------------------------------------------------|
G|-----------------------------------------------------------|
D|----------------------------10-10-10-10-10-10-10-10-10-----|
A|---10-10-10-10-10-10-10-10--8--8--8--8--8--8--8--8--8------|
E|---8--8--8--8--8--8--8--8----------------------------------|

(solo)
e|--3-3-3-3-3-3-3--8-8-8-8-8-8-8--3-3-3-3-3-3-3--8-8-8-8-8-8-8-|
B|-------------------------------------------------------------|
G|-------------------------------------------------------------|
D|-------------------------------------------------------------|
A|-------------------------------------------------------------|
E|-------------------------------------------------------------|


order: 
intro      1x
riff 2     6x
riff 3a    3x
riff 3b    1x
riff 2     6x
riff 3a    3x
riff 3b    1x
riff 4     2x
solo       1x
riff 3a    9x







| D  Downstroke
| U  Upstroke
| :  Hold Chord
| /  slide up
| \  slide down
| h  hammer-on
| p  pull-off
| ~  vibrato
| +  harmonic
| x  Mute note
===============================================================================
Comments