Misfits - I Turned Into A Martian Chords & Tabs

 

I Turned Into A Martian Chords & Tabs

Misfits Chords & Tabs

Version: 2 Type: Tab 0 ratings
1 star 2 stars 3 stars 4 stars 5 stars
comments

I Turned Into A Martian Tab

Tablatura de NICO M. (nicokbbl@hotmail.com)

Artista: Misfits
Cancion: I Turned Into A Martian
Album: Walk Among Us (1982)


Intro

1|---------------------------------------------------------|
2|---------------------------------------------------------|
3|--------7------------------------------------------------|
4|--5--7--7------------------------------------------------|
5|--5--7--5------------------------------------------------|
6|--3--5---------------------------------------------------|

    ...Oh go!!

1|---------------------------------------------------------|
2|---------------------------------------------------------|
3|----------7-7-7--------------7-7-7-----------------------|
4|--9-9-9-9-7-7-7-7-7--9-9-9-9-7-7-7-7-7-------------------|
5|--9-9-9-9-5-5-5-7-7--9-9-9-9-5-5-5-7-7-------------------|
6|--7-7-7-7-------5-5--7-7-7-7-------5-5-------------------|



1|---------------------------------------------------------|
2|---------------------------------------------------------|
3|----------7-7-7--------------7-7-7-----------------------|
4|--9-9-9-9-7-7-7-7-7--9-9-9-9-7-7-7-7-7-------------------|
5|--9-9-9-9-5-5-5-7-7--9-9-9-9-5-5-5-7-7-------------------|
6|--7-7-7-7-------5-5--7-7-7-7-------5-5-------------------|


   Possession of the mind is a terrible thing
   It's a transformation with an urge to kill

1|---------------------------------------------------------|
2|---------------------------------------------------------|
3|----------7-7-7--------------7-7-7-----------------------|
4|--9-9-9-9-7-7-7-7-7--9-9-9-9-7-7-7-7-7-------------------|
5|--9-9-9-9-5-5-5-7-7--9-9-9-9-5-5-5-7-7-------------------|
6|--7-7-7-7-------5-5--7-7-7-7-------5-5-------------------|


   Not the body of a man from earth
   Not the face of the one you love, 'cause

1|---------------------------------------------------------|
2|---------------------------------------------------------|
3|----------------7--7-------------------------------------|x8
4|--5-5-5-5-7-7-7-7--7-7-5---------------------------------|
5|--5-5-5-5-7-7-7-5--5-7-5---------------------------------|
6|--3-3-3-3-5-5-5------5-3---------------------------------|


   Well, I turned into a Martian
   Woah oh oh
   I can't even recall my name
   Woah oh oh
   Times I never hardly sleep at night
   Woah oh oh
   Well, I turned into a Martian today

[ Tab from: http://www.guitartabs.cc/tabs/m/misfits/i_turned_into_a_martian_tab_ver_2.html ]
1|---------------------------------------------------------|
2|---------------------------------------------------------|
3|----------7-7-7--------------7-7-7-----------------------|
4|--9-9-9-9-7-7-7-7-7--9-9-9-9-7-7-7-7-7-------------------|
5|--9-9-9-9-5-5-5-7-7--9-9-9-9-5-5-5-7-7-------------------|
6|--7-7-7-7-------5-5--7-7-7-7-------5-5-------------------|



1|---------------------------------------------------------|
2|---------------------------------------------------------|
3|----------7-7-7--------------7-7-7-----------------------|
4|--9-9-9-9-7-7-7-7-7--9-9-9-9-7-7-7-7-7-------------------|
5|--9-9-9-9-5-5-5-7-7--9-9-9-9-5-5-5-7-7-------------------|
6|--7-7-7-7-------5-5--7-7-7-7-------5-5-------------------|

   
   I walk down city streets
   On an unsuspecting human world


1|---------------------------------------------------------|
2|---------------------------------------------------------|
3|----------7-7-7--------------7-7-7-----------------------|
4|--9-9-9-9-7-7-7-7-7--9-9-9-9-7-7-7-7-7-------------------|
5|--9-9-9-9-5-5-5-7-7--9-9-9-9-5-5-5-7-7-------------------|
6|--7-7-7-7-------5-5--7-7-7-7-------5-5-------------------|


   Inhuman in your midst
   This world is mine to own, 'cause



1|---------------------------------------------------------|
2|---------------------------------------------------------|
3|----------------7--7-------------------------------------|x8
4|--5-5-5-5-7-7-7-7--7-7-5---------------------------------|
5|--5-5-5-5-7-7-7-5--5-7-5---------------------------------|
6|--3-3-3-3-5-5-5------5-3---------------------------------|


   Well, I turned into a Martian
   Woah oh oh
   I can't even recall my name
   Woah oh oh
   Times I never hardly sleep at night
   Woah oh oh
   Well, I turned into a Martian today


1|---------------------------------------------------------|
2|---------------------------------------------------------|
3|---------------------------------------------------------|x4
4|--7-7-7-7-5-5-5-5----------------------------------------|
5|--7-7-7-7-5-5-5-5----------------------------------------|
6|--5-5-5-5-3-3-3-3----------------------------------------|




1|---------------------------------------------------------|
2|---------------------------------------------------------|
3|----------------7--7-------------------------------------|x8
4|--5-5-5-5-7-7-7-7--7-7-5---------------------------------|
5|--5-5-5-5-7-7-7-5--5-7-5---------------------------------|
6|--3-3-3-3-5-5-5------5-3---------------------------------|


  Well, I turned into a Martian
  Woah oh oh
  Well, I can't even recall my name
  Woah oh oh
  Times I never hardly sleep at night
  Woah oh oh
  Turned into a martian
  Woah oh oh
  Can't even recall my name
  Oh, won't you tell me what the fuck is my name, Martian
  Woah oh oh
  Woah oh oh.
Comments