Misfits - Hybrid Moments Chords & Tabs

 

Hybrid Moments Chords & Tabs

Misfits Chords & Tabs

Version: 4 Type: Bass Tab 0 ratings
1 star 2 stars 3 stars 4 stars 5 stars
comments

Hybrid Moments Bass Tab

The Misfits - Hybrid Moments

(What the other tabs fail to mention is that Jerry is mostly playing on the octives,
not every Misfits song is just a guitar riff played on bass)

Main Riff

G-----------------------------------------------------------------|
D-----------99999999----------------------------------------------|
A-------------------------6666-5555555----------------------------|
E--55555555----------3333-----------------------------------------|

Chourus
[ Tab from: http://www.guitartabs.cc/tabs/m/misfits/hybrid_moments_btab_ver_4.html ]
G------------------------------------------------------------------|
D-9-99999-7-77777-7-77777-5-55555---------7-77777-5-55555-7-77777--|
A---------------------------------5-55555--------------------------|
E------------------------------------------------------------------|

Outro

G-------------------------------------------------------------------|
D-------------------------0-----------------------------------------|
A-------------0-0-0-0-0-0-------------------------------------------|
E-3-3-3-3-3-3-------------------------------------------------------|

Tab By
Joey Methadone
Comments