Misfits - Horror Business Chords & Tabs

 

Horror Business Chords & Tabs

Misfits Chords & Tabs

Version: 4 Type: Tab 0 ratings
1 star 2 stars 3 stars 4 stars 5 stars
comments

Horror Business Tab

   
-------------------------------------------------------------------------------
			     Horror Business - Misfits
-------------------------------------------------------------------------------
Tabbed by: Astrozombie138

Tuning: standard


(riff 1)
e|-----------------------------------------------------|
B|-----------------------------------------------------|
G|-----------------------------------------------------|
D|-----------------------------------------------------|
A|--8-7--5-5---5--5-5---5--5-5---5--5-5---5--8-8-7-7---|
E|--6-5--3-3-6-3--3-3-6-3--3-3-6-3--3-3-6-3--6-6-5-5---|

(riff 2)
e|-------------------------------------|------------|
B|-------------------------------------|------------|
G|-------------------------------------|------------|
D|-------------------------------------|------------|
A|--5-5---5--5-5---5--5-5---5--5-5---5-|-8-8-7-7----|
E|--3-3-6-3--3-3-6-3--3-3-6-3--3-3-6-3-|-6-6-5-5----|

(riff 3)
e|--------------------------------------|
B|--------------------------------------|
G|--------------------------------------|
D|--------------------------------------|
A|--8-8-8-8-8-7-7-7-7-7-10-10-10-10-10--|
E|--6-6-6-6-6-5-5-5-5-5-8--8--8--8--8---|
[ Tab from: http://www.guitartabs.cc/tabs/m/misfits/horror_business_tab_ver_4.html ]
(chorus)
e|-------------------------------------------------------------------------------|
B|-------------------------------------------------------------------------------|
G|-------------------------------------------------------------------------------|
D|-10-10-10-10-10-10-10----------------------------------------------------------|
A|-8--8--8--8--8--8--8--10-10-10-10-10-10-10--8-8-8-8-8-8-8--10-10-10-10-10-10-10|
E|----------------------8--8--8--8--8--8--8---6-6-6-6-6-6-6--8-8-8-8-8-8-8-8-8-8-|

(solo)
e|--13-13-13-13-13-13-13-13---8-8-8-8-8-8-8-6-6-6-6-6-6-6-8-8-8-8-8-8--------|
B|--13-13-13-13-13-13-13-13---8-8-8-8-8-8-8-6-6-6-6-6-6-6-8-8-8-8-8-8--------|
G|---------------------------------------------------------------------------|
D|---------------------------------------------------------------------------|
A|---------------------------------------------------------------------------|
E|---------------------------------------------------------------------------|

(solo cont.)
e|---------------------------------------------------------------------------|
B|--6^-6^-6^--8^-8^-8^--11^-11^-11^-13^-13^-13^------------------------------|
G|-----------------------------------------------12h14(trill)----------------|
D|---------------------------------------------------------------------------|
A|---------------------------------------------------------------------------|
E|---------------------------------------------------------------------------|

order:
riff 1       1x
riff 2       5x
riff 3       1x
riff 1       1x
riff 2       5x
riff 3       1x
chorus       4x
riff 1       1x
riff 2       5x
riff 3       1x
riff 1       1x
riff 2       5x
riff 3       1x
chorus       4x
solo         1x(another guitar plays chorus over this)
chorus       2x(1st time palm muted)
end with F chord



| ^  bend
| /  slide up
| \  slide down
| h  hammer-on
| p  pull-off
| ~  vibrato
| +  harmonic
| x  Mute note
===============================================================================
Comments