Misfits - Horror Business Chords & Tabs

 

Horror Business Chords & Tabs

Misfits Chords & Tabs

Version: 3 Type: Tab 0 ratings
1 star 2 stars 3 stars 4 stars 5 stars
comments

Horror Business Tab

-------------------------------------------------------------------------------
                               HORROR BUSINESS - Misfits 
-------------------------------------------------------------------------------

By: Terry (AFI_Follower3@hotmail.com)

Intro
e|-----|-------------|
B|-----|-------------|
G|-----|-------------|
D|-----|-------------|
A|-8-7-|-5-5-5-5-5-5-|
E|-6-5-|-3-3-6-6-3-3-|

Verse
e|------------------------------|
B|------------------------------|
G|------------------------------|
D|------------------------------|
A|-5-5-5-5-5-5--8-8-8-8-7-7-6-6-|
E|-3-3-6-6-3-3--6-6-6-6-5-5-4-4-|
[ Tab from: http://www.guitartabs.cc/tabs/m/misfits/horror_business_tab_ver_3.html ]
Chorus
e|---------------------------------|
B|---------------------------------|
G|---------------------------------|
D|-10-10-10-10---------------------|
A|--8--8--8--8-10-10-10-10-8-8-8-8-|
E|--------------8--8--8--8-6-6-6-6-|

Whole Verse

Outro:
e|------------------------------------|
B|------------------------------------|
G|-10---------------------------------|
D|-10---------------------------------|
A|--8---------------------------------|
E|------------------------------------|

  solo:
E|-13----------------------------------------------------------------|
B|----8-6-8--6-6-6-8-8-8-11-11-11-13-13-13---------------------------|
G|-----------------------------------------12-14-(trill these notes)-|
D|-------------------------------------------------------------------|
A|-------------------------------------------------------------------|
E|-------------------------------------------------------------------|
     * to end the solo scratch the pick down the e and a strings

There!! A correct version of my fave Misfits song, Horror Business!
Comments