Misfits - Helena Chords & Tabs

 

Helena Chords & Tabs

Misfits Chords & Tabs

Version: 4 Type: Tab 0 ratings
1 star 2 stars 3 stars 4 stars 5 stars
comments

Helena Tab

Misfits - Helena

tuning- standard
pm- palm mute
/- slide

|---------------------|
|---------------------|
|----------3----------|  X2
|-----5----3----3-----|
|-----5----1----3-----|
|-----3---------1-----|

|-----------------------------|
|-----------------------------|
|------------------3----------|  X12
|---3-3--4----5----3----4-----|
|---3-3--4----5----1----4-----|
|---1-1--2----3---------2-----|

|----------------------------------------------------|
|----------------------------------------------------|
|-----------------------3----------------------------|  X3
|---3-3--4----5---------3-----------3----------------|
|---3-3--4----5---------1-----------3----------------|
|---1-1--2----3--3--3------1--1-----1----1--1--1--1--|
pm               -  -      -  -          -  -  -  -

|-----------------------------------------|
|-----------------------------------------|
|-----------------------3-----------------|  (played slower)
|---3-3--4----5---------3-----------3-----|
|---3-3--4----5---------1-----------3-----|
|---1-1--2----3--3--3------1--1-----1-----|
pm               -  -      -  -

|--------------------------------------------|
|--------------------------------------------|
|---9-9-9--10-10-10--7-7-7--9-9-9--5-5--7-7--|
|---9-9-9--10-10-10--7-7-7--9-9-9--5-5--7-7--|
|---7-7-7--8--8--8---5-5-5--7-7-7--3-3--5-5--|
|--------------------------------------------|
                                               2x
|-----------------------------------------|
|-----------------------------------------|
|---4-4-4--5-5-5--2-2-2--4-4-4------------|
|---4-4-4--5-5-5--2-2-2--4-4-4--4-4--5-5--|
|---2-2-2--3-3-3--0-0-0--2-2-2--4-4--5-5--|
|-------------------------------2-2--3-3--|

|--------------------------------------------|
|--------------------------------------------|
|-------4-----5-----7-----5-----4-----2---4--|
|-------4-----5-----7-----5-----4-----2---4--|
|-------2-----3-----5-----3-----2-----0---2--|
|---0-0-----0-----0-----0-----0-----0--------|
pm  - -     -     -     -     -     -
                                               2x
|--------------------------------------|
|--------------------------------------|
|-------4-----5-----7-----3-3--4--5-5--|
|-------4-----5-----7-----3-3--4--5-5--|
|-------2-----3-----5-----1-1--2--3-3--|
|---0-0-----0-----0-----0--------------|
pm  - -     -     -     -

|---------------------------------------------------------|
|---------------------------------------------------------|
|---9--9-9-9-9-9-9-9---7---5---7--7-7-7-7-7-7-7---7---5---|  X2
|---9--9-9-9-9-9-9-9---7---5---7--7-7-7-7-7-7-7---7---5---|
|---7--7-7-7-7-7-7-7---5---3---5--5-5-5-5-5-5-5---5---3---|
|---------------------------------------------------------|

|-----------------------------------------------------------|
|-----------------------------------------------------------|
|----9---------------12--11--9---7--------------7---5---7---|  X2
|----9---------------12--11--9---7--------------7---5---7---|
|----7---------------10--9---8---5--------------5---3---5---|
|-------0-0-0-0-0-0-----------------0-0-0-0-0-0-------------|
pm      - - - - - -                 - - - - - -
[ Tab from: http://www.guitartabs.cc/tabs/m/misfits/helena_tab_ver_4.html ]
|--------------------------------------------|
|--------------------------------------------|
|-------4-----5-----7-----5-----4-----2---4--|
|-------4-----5-----7-----5-----4-----2---4--|
|-------2-----3-----5-----3-----2-----0---2--|
|---0-0-----0-----0-----0-----0-----0--------|
pm  - -     -     -     -     -     -
                                               2x
|--------------------------------------|
|--------------------------------------|
|-------4-----5-----7-----3-3--4--5-5--|
|-------4-----5-----7-----3-3--4--5-5--|
|-------2-----3-----5-----1-1--2--3-3--|
|---0-0-----0-----0-----0--------------|
pm  - -     -     -     -

|---------------------------------------------------------|
|---------------------------------------------------------|
|---9--9-9-9-9-9-9-9---7---5---7--7-7-7-7-7-7-7---7---5---|  X2
|---9--9-9-9-9-9-9-9---7---5---7--7-7-7-7-7-7-7---7---5---|
|---7--7-7-7-7-7-7-7---5---3---5--5-5-5-5-5-5-5---5---3---|
|---------------------------------------------------------|

|-----------------------------------------------------------|
|-----------------------------------------------------------|
|----9---------------12--11--9---7--------------7---5---7---|  X2
|----9---------------12--11--9---7--------------7---5---7---|
|----7---------------10--9---8---5--------------5---3---5---|
|-------0-0-0-0-0-0-----------------0-0-0-0-0-0-------------|
pm      - - - - - -                 - - - - - -

|-----------------------------------------------|
|-----------------------------------------------|
|-------4------5-----7------5------4-----2---4--| 4x
|-------4------5-----7------5------4-----2---4--|
|-------2------3-----5------3------2-----0---2--|
|---0-0----0-0-----0----0-0----0-0-----0--------|
pm  - -     -      -    - -    - -     -

|---------------------------------------|
|---------------------------------------|
|---4-----------4--2--4--5----------5---|
|---4-----------4--2--4--5----------5---|
|---2-----------2--0--2--3----------3---|
|------2-2-2-2--------------3-3-3-3-----|
pm     - - - -              - - - -

|-------------------------------------------------------|
|-------------------------------------------------------|
|---2--3--4-----------4---------------------------------|
|---2--3--4-----------4-------5-----7-4~~~--------------|
|---0--1--2-----------2-------5-----7-4~~~--------------|
|------------2-2-2-2--------3-3--5--5-2~~~--------------|
pm           - - - -        -    -

some kind of slide then (2///\\\)

|---------------------|
|---------------------|
|----------3----------|  X2
|-----5----3----3-----|
|-----5----1----3-----|
|-----3---------1-----|

|----------------------------------------------------|
|----------------------------------------------------|
|-----------------------3----------------------------|  6x
|---3-3--4----5---------3-----------3----------------|
|---3-3--4----5---------1-----------3----------------|
|---1-1--2----3--3--3------1--1-----1----1--1--1--1--|
pm               -  -      -  -          -  -  -  -

|---------------------------------------|
|---------------------------------------|
|-----------------------3---------------| (played slower)
|---3-3--4----5---------3-----------3---|
|---3-3--4----5---------1-----------3---|
|---1-1--2----3--3--3------1--1-----1---|
pm               -  -      -  -
Comments