Misfits - Helena Chords & Tabs

 

Helena Chords & Tabs

Misfits Chords & Tabs

Version: 2 Type: Tab 0 ratings
1 star 2 stars 3 stars 4 stars 5 stars
comments

Helena Tab

this song is probably the best post-danzig misfits song
doyle does the most amazing guitar work (that s.o.b. plays freakin fast)

drop d tuning

    -------------     ------------------
  1 -------------   2 ------------------
    -------------     ------------------
    --5---8---3--     --5---8---3---034-
    --5---8---3--     --5---8---3---034-
    --5---8---3--     --5---8---3---034-

  -------------------------------   -------------------------------------------
3 ------------------------------- 4 -------------------------------------------
  -10-11-8-10-6-8----------------   ---------8--------------------8------------
  -10-11-8-10-6-8-10-11-8-10-6-8-   ---10-11---11-10-8-10---10-11---11-11-11-10
  -8--9--6-8--4-6-10-11-8-10-6-8-   -8--------------------8---------11-11-11-10
  ----------------10-11-8-10-6-8-   --------------------------------11-11-11-10

note: 3 is the fast strumming part. each chord is strummed many times quickly.
      watch misfits live to see how doyle does it
[ Tab from: http://www.guitartabs.cc/tabs/m/misfits/helena_tab_ver_2.html ]
 
    ----------/---------------/------------------------/-----------------------
    ----------/---------------/------------------------/-----------------------
 5  -10----8--/---10---8--6-8-/--10--13-11-10-8--8-6-8-/-10--13-11-10-8--8-6-8-
    -10----8--/---10---8--6-8-/--10--13-11-10-8--8-6-8-/-10--13-11-10-8--8-6-8-
    -8-----6--/---8----6--4-6-/--8---11-9--8--6--6-4-6-/-8---11-9--8--6--6-4-6-
    ----------/---------------/------------------------/-----------------------

  -----------------------------------------------------------------------------
6 -----------------------------------------------------------------------------
  -5--5-5-5-5--5----------6--6-6-6-6--6----------5--5-5-5-5--5--5-5-5-5--------
  -5--5-5-5-5--5--6-6-8-8-6--6-6-6-6--6--6-6-8-8-5--5-5-5-5--5--5-5-5-5--5-----
  -3--3-3-3-3--3--6-6-8-8-4--4-4-4-4--4--6-6-8-8-3--3-3-3-3--3--3-3-3-3--5-----
  ----------------6-6-8-8----------------6-6-8-8-------------------------3-----

   ----------------
   ----------------
 7 ----------------
   -5--8--5--------
   -5--8--5--------
   -5--8--5--------

song order: 1(1x)/2(19x)/3(2x)/4(2x)/5(1x)/4(2x)/5(1x)/3(4x)/1(1x)
Comments