Misfits - Helena Chords & Tabs

 

Helena Chords & Tabs

Misfits Chords & Tabs

Version: 1 Type: Bass Tab 0 ratings
1 star 2 stars 3 stars 4 stars 5 stars
comments

Helena Bass Tab

Song: Helena
Band: Misfits
Album: Famous Monsters(1997)

This is one of the best Misfits songs ever, no Danzig though unfortunately... The
guitar part is mainly just the same but in power chords and such, maybe a bit of a
variety. Listen to the song for the timing.

%Intro%
|----------------|
|----------------|
|-(Guitar-Intro)-|
|----------------|

%Main Riff/Intro% (0:06)
|--------------------|
|--------------------| 
|------------2-------|(X16)
|--2-2-3-4------2----|
[ Tab from: http://www.guitartabs.cc/tabs/m/misfits/helena_btab.html ]
#Faster Riff# (1:12)
|--------------------------------------
|--------------------------------------
|-7-7-7--8-8-8--5-5-5--7-7-7--3-3--5-5-
|--------------------------------------
(continued)
-----------------------------------------|
-----------------------------------------|
-2-2-2--3-3-3--0-0-0--2-2-2--------------|
-----------------------------2-2--3-3----|

~Funky Fast Riff~
|---------------------------------------------|
|---------------------------------------------|
|--2--3--5--3--2--0-2----2--3--5--11-2-33-----|(X2)
|---------------------------------------------|

$Second Verse$ (1:25)  "Cutting with the Knife..."
|---------------------------------------------|
|---------------------------------------------|
|---3333333-----------44444444----------------|X2
|-----------66666666------------66666666------|

~Funky Fast Riff~ (X2)"Kniiiiiiiiiiiife..."

$Second Verse$ (X2) "Her Beauty so Illogical..."

#Faster Riff# (X4) "Flaaaaaaaaaames.."

%Main Riff% (X8) "If I Cut off my Arms..."  *Guitar for two bars(like intro*

Thanks for reading my tab, Long live the Misfits.
Rate 5!!!

Corbs
Comments