Misfits - Hatebreeders Chords & Tabs

 

Hatebreeders Chords & Tabs

Misfits Chords & Tabs

Version: 2 Type: Bass Tab 0 ratings
1 star 2 stars 3 stars 4 stars 5 stars
comments

Hatebreeders Bass Tab

Misfits - Hatebreeders 6/28/00
Tabbed by: KSAxTekken (uncool3@juno.com) Send corrections there
I'm only guessing how many times to play each note, its hard to hear
the bass in old Misfits stuff.  Feel free to email me any corrections.
& = 11

Intro
G-------------------------------------------------------------
D-------------------------------------------------------------
A---------------9-999999999-&-&&&&&&&&&-----------------------
E-7-777777777-----------------------------&-&&&&&&&&&---------

G---------------------------------------------
D---------------------------------------------
A---------------------------------------------
E-9-9-9-9-9-9-9-9-&-&-&-&-&-&-&-&-------------

G---------------------------------------------
D---------------------------------------------
A-&&&&&&&&-99999999---------------------------
E---------------------------------------------

Chorus
G---------------------------------------------
D---------------------------------------------
A---------------------------------------------
E-77777777-0-0-000000-77777777-0-0-000000-----

Verse
G-------------------------------------------------------------
D-------------------------------------------------------------
A---------------9-999999999-&-&&&&&&&&&-----------------------
E-7-777777777-----------------------------&-&&&&&&&&&---------
               
G---------------------------------------------
D---------------------------------------------
A---------------------------------------------
E-9-9-9-9-9-9-9-9-&-&-&-&-&-&-&-&-------------

G---------------------------------------------
D---------------------------------------------
A-&&&&&&&&-99999999---------------------------
E---------------------------------------------

Chorus
G---------------------------------------------
D---------------------------------------------
A---------------------------------------------
E-77777777-0-0-000000-77777777-0-0-000000-----

G---------------------------------------------
D---------------------------------------------
A---------------------------------------------
E-77777777-0-0-000000-77777777-0-0-000000-----

Verse
G-------------------------------------------------------------
D-------------------------------------------------------------
A---------------9-999999999-&-&&&&&&&&&-----------------------
E-7-777777777-----------------------------&-&&&&&&&&&---------              

G---------------------------------------------
D---------------------------------------------
A---------------------------------------------
E-9-9-9-9-9-9-9-9-&-&-&-&-&-&-&-&-------------
[ Tab from: http://www.guitartabs.cc/tabs/m/misfits/hatebreeders_btab_ver_2.html ]
G---------------------------------------------
D---------------------------------------------
A-&&&&&&&&-99999999---------------------------
E---------------------------------------------

Chorus
G---------------------------------------------
D---------------------------------------------
A---------------------------------------------
E-77777777-0-0-000000-77777777-0-0-000000-----

G---------------------------------------------
D---------------------------------------------
A---------------------------------------------
E-77777777-0-0-000000-77777777-0-0-000000-----

Verse
G-------------------------------------------------------------
D-------------------------------------------------------------
A---------------9-999999999-&-&&&&&&&&&-----------------------
E-7-777777777-----------------------------&-&&&&&&&&&---------
               
G---------------------------------------------
D---------------------------------------------
A---------------------------------------------
E-9-9-9-9-9-9-9-9-&-&-&-&-&-&-&-&-------------

G---------------------------------------------
D---------------------------------------------
A-&&&&&&&&-99999999---------------------------
E---------------------------------------------
G---------------------------------------------

Chorus
G---------------------------------------------
D---------------------------------------------
A---------------------------------------------
E-77777777-0-0-000000-77777777-0-0-000000-----

G---------------------------------------------
D---------------------------------------------
A---------------------------------------------
E-77777777-0-0-000000-77777777-0-0-000000-----

Verse
G-------------------------------------------------------------
D-------------------------------------------------------------
A---------------9-999999999-&-&&&&&&&&&-----------------------
E-7-777777777-----------------------------&-&&&&&&&&&---------
               
G---------------------------------------------
D---------------------------------------------
A---------------------------------------------
E-9-9-9-9-9-9-9-9-&-&-&-&-&-&-&-&-------------

G---------------------------------------------
D---------------------------------------------
A-&&&&&&&&-99999999---------------------------
E---------------------------------------------
G---------------------------------------------

Chorus
G---------------------------------------------
D---------------------------------------------
A---------------------------------------------
E-77777777-0-0-000000-77777777-0-0-000000-----

G---------------------------------------------
D---------------------------------------------
A---------------------------------------------
E-77777777-0-0-000000-77777777-0-0-000000-----

End
G---------------------------------------------
D---------------------------------------------
A---------------------------------------------
E-77777777-0-0-000000-77777777-0-0-000000----- 
Comments