Misfits - Ghouls Night Out Chords & Tabs

 

Ghouls Night Out Chords & Tabs

Misfits Chords & Tabs

Version: 1 Type: Tab 0 ratings
1 star 2 stars 3 stars 4 stars 5 stars
comments

Ghouls Night Out Tab

Ghouls Night Out

Transcribed by: Look_Upon_Me@yahoo.com

    Drums...

E  :----------------|----------------|----------------|----------------|
B  :----------------|----------------|----------------|----------------|
G  :----------------|----------------|----------------|7-*-7-*-9-*-9-*-|
D  :7---7-7-7-7-7-7-|7-7-7-7-7-7-7-7-|5---5-5-5-5-5-5-|7---7---9---9---|
A  :7---7-7-7-7-7-7-|7-7-7-7-7-7-7-7-|5---5-5-5-5-5-5-|5-*-5-*-7-*-7-*-|
E  :5---5-5-5-5-5-5-|5-5-5-5-5-5-5-5-|3---3-3-3-3-3-3-|----------------|

E  :----------------|----------------|----------------|----------------|
B  :----------------|----------------|----------------|----------------|
G  :----------------|----------------|----------------|7-*-7-*-9-*-9-*-|
D  :7---7-7-7-7-7-7-|7-7-7-7-7-7-7-7-|5---5-5-5-5-5-5-|7---7---9---9---|
A  :7---7-7-7-7-7-7-|7-7-7-7-7-7-7-7-|5---5-5-5-5-5-5-|5-*-5-*-7-*-7-*-|
E  :5---5-5-5-5-5-5-|5-5-5-5-5-5-5-5-|3---3-3-3-3-3-3-|----------------|

E  :----------------|----------------|----------------|----------------|
B  :----------------|----------------|----------------|----------------|
G  :----------------|----------------|----------------|7-*-7-*-9-*-9-*-|
D  :7---7-7-7-7-7-7-|7-7-7-7-7-7-7-7-|5---5-5-5-5-5-5-|7---7---9---9---|
A  :7---7-7-7-7-7-7-|7-7-7-7-7-7-7-7-|5---5-5-5-5-5-5-|5-*-5-*-7-*-7-*-|
E  :5---5-5-5-5-5-5-|5-5-5-5-5-5-5-5-|3---3-3-3-3-3-3-|----------------|

E  :----------------|----------------|----------------|----------------|
B  :----------------|----------------|----------------|----------------|
G  :----------------|----------------|----------------|7-*-7-*-9-*-9-*-|
D  :7---7-7-7-7-7-7-|7-7-7-7-7-7-7-7-|5---5-5-5-5-5-5-|7---7---9---9---|
A  :7---7-7-7-7-7-7-|7-7-7-7-7-7-7-7-|5---5-5-5-5-5-5-|5-*-5-*-7-*-7-*-|
E  :5---5-5-5-5-5-5-|5-5-5-5-5-5-5-5-|3---3-3-3-3-3-3-|----------------|

E  :----------------|----------------|----------------|----------------|
B  :----------------|----------------|----------------|----------------|
G  :9-9-9-9-9-9-9-9-|9-9-9-9-9-9-9-9-|7-7-7-7-7-7-7-7-|7-7-7-7-7-7-7-7-|
D  :9-9-9-9-9-9-9-9-|9-9-9-9-9-9-9-9-|7-7-7-7-7-7-7-7-|7-7-7-7-7-7-7-7-|
A  :7-7-7-7-7-7-7-7-|7-7-7-7-7-7-7-7-|5-5-5-5-5-5-5-5-|5-5-5-5-5-5-5-5-|
E  :----------------|----------------|----------------|----------------|

E  :----------------|----------------|----------------|----------------|
B  :----------------|----------------|----------------|----------------|
G  :9-9-9-9-9-9-9-9-|9-9-9-9-9-9-9-9-|7-7-7-7-7-7-7-7-|7-7-7-7-7-7-7-7-|
D  :9-9-9-9-9-9-9-9-|9-9-9-9-9-9-9-9-|7-7-7-7-7-7-7-7-|7-7-7-7-7-7-7-7-|
A  :7-7-7-7-7-7-7-7-|7-7-7-7-7-7-7-7-|5-5-5-5-5-5-5-5-|5-5-5-5-5-5-5-5-|
E  :----------------|----------------|----------------|----------------|

E  :----------------|----------------|------------------------|
B  :----------------|----------------|------------------------|
G  :9-9-9-9-9-9-9-9-|9-9-9-9-9-9-9-9-|------------------------|
D  :9-9-9-9-9-9-9-9-|9-9-9-9-9-9-9-9-|10-10-10-10-10-10-10-10-|
A  :7-7-7-7-7-7-7-7-|7-7-7-7-7-7-7-7-|10-10-10-10-10-10-10-10-|
E  :----------------|----------------|-8--8--8--8--8--8--8--8-|

E  :------------------------|----------------|----------------|
B  :------------------------|----------------|----------------|
G  :------------------------|----------------|----------------|
D  :10-10-10-10-10-10-10-10-|9-9-9-9-9-9-9-9-|9-9-9-9-9-9-9-9-|
A  :10-10-10-10-10-10-10-10-|9-9-9-9-9-9-9-9-|9-9-9-9-9-9-9-9-|
E  :-8--8--8--8--8--8--8--8-|7-7-7-7-7-7-7-7-|7-7-7-7-7-7-7-7-|

E  :----------------|----------------|------------------------|
B  :----------------|----------------|------------------------|
G  :----------------|----------------|------------------------|
D  :7-7-7-7-7-7-7-7-|7-7-7-7-7-7-7-7-|11-11-11-11-11-11-11-11-|
A  :7-7-7-7-7-7-7-7-|7-7-7-7-7-7-7-7-|11-11-11-11-11-11-11-11-|
E  :5-5-5-5-5-5-5-5-|5-5-5-5-5-5-5-5-|-9--9--9--9--9--9--9--9-|

E  :------------------------|----------------|----------------|
B  :------------------------|----------------|----------------|
G  :------------------------|7-7-7-7-7-7-7-7-|7-7-7-7-7-7-7-7-|
D  :11-11-11-11-11-11-11-11-|7-7-7-7-7-7-7-7-|7-7-7-7-7-7-7-7-|
A  :11-11-11-11-11-11-11-11-|5-5-5-5-5-5-5-5-|5-5-5-5-5-5-5-5-|
E  :-9--9--9--9--9--9--9--9-|----------------|----------------|

E  :----------------|----------------|----------------|----------------|
B  :----------------|----------------|----------------|----------------|
G  :9-9-9-9-9-9-9-9-|9-9-9-9-9-9-9-9-|----------------|----------------|
D  :9-9-9-9-9-9-9-9-|9-9-9-9-9-9-9-9-|7-7-7-7-7-7-7-7-|7-7-7-7-7-7-7-7-|
A  :7-7-7-7-7-7-7-7-|7-7-7-7-7-7-7-7-|7-7-7-7-7-7-7-7-|7-7-7-7-7-7-7-7-|
E  :----------------|----------------|5-5-5-5-5-5-5-5-|5-5-5-5-5-5-5-5-|

E  :------------------------|------------------------|----------------|
B  :------------------------|------------------------|----------------|
G  :------------------------|------------------------|7-7-7-7-7-7-7-7-|
D  :11-11-11-11-11-11-11-11-|11-11-11-11-11-11-11-11-|7-7-7-7-7-7-7-7-|
A  :11-11-11-11-11-11-11-11-|11-11-11-11-11-11-11-11-|5-5-5-5-5-5-5-5-|
E  :-9--9--9--9--9--9--9--9-|-9--9--9--9--9--9--9--9-|----------------|
[ Tab from: http://www.guitartabs.cc/tabs/m/misfits/ghouls_night_out_tab.html ]
E  :----------------|----------------|----------------|----------------|
B  :----------------|----------------|----------------|----------------|
G  :7-7-7-7-7-7-7-7-|9-9-9-9-9-9-9-9-|9-9-9-9-9-9-9-9-|9-9-9-9-9-9-9-9-|
D  :7-7-7-7-7-7-7-7-|9-9-9-9-9-9-9-9-|9-9-9-9-9-9-9-9-|9-9-9-9-9-9-9-9-|
A  :5-5-5-5-5-5-5-5-|7-7-7-7-7-7-7-7-|7-7-7-7-7-7-7-7-|7-7-7-7-7-7-7-7-|
E  :----------------|----------------|----------------|----------------|

E  :----------------|----------------|----------------|----------------|
B  :----------------|----------------|----------------|----------------|
G  :9-9-9-9-9-9-9-9-|7-7-7-7-7-7-7-7-|7-7-7-7-7-7-7-7-|9-9-9-9-9-9-9-9-|
D  :9-9-9-9-9-9-9-9-|7-7-7-7-7-7-7-7-|7-7-7-7-7-7-7-7-|9-9-9-9-9-9-9-9-|
A  :7-7-7-7-7-7-7-7-|5-5-5-5-5-5-5-5-|5-5-5-5-5-5-5-5-|7-7-7-7-7-7-7-7-|
E  :----------------|----------------|----------------|----------------|

E  :----------------|----------------|----------------|----------------|
B  :----------------|----------------|----------------|----------------|
G  :9-9-9-9-9-9-9-9-|7-7-7-7-7-7-7-7-|7-7-7-7-7-7-7-7-|9-9-9-9-9-9-9-9-|
D  :9-9-9-9-9-9-9-9-|7-7-7-7-7-7-7-7-|7-7-7-7-7-7-7-7-|9-9-9-9-9-9-9-9-|
A  :7-7-7-7-7-7-7-7-|5-5-5-5-5-5-5-5-|5-5-5-5-5-5-5-5-|7-7-7-7-7-7-7-7-|
E  :----------------|----------------|----------------|----------------|

E  :----------------|------------------------|------------------------|
B  :----------------|------------------------|------------------------|
G  :9-9-9-9-9-9-9-9-|------------------------|------------------------|
D  :9-9-9-9-9-9-9-9-|10-10-10-10-10-10-10-10-|10-10-10-10-10-10-10-10-|
A  :7-7-7-7-7-7-7-7-|10-10-10-10-10-10-10-10-|10-10-10-10-10-10-10-10-|
E  :----------------|-8--8--8--8--8--8--8--8-|-8--8--8--8--8--8--8--8-|

E  :----------------|----------------|----------------|----------------|
B  :----------------|----------------|----------------|----------------|
G  :----------------|----------------|----------------|----------------|
D  :9-9-9-9-9-9-9-9-|9-9-9-9-9-9-9-9-|7---7-7-7-7-7-7-|7-7-7-7-7-7-7-7-|
A  :9-9-9-9-9-9-9-9-|9-9-9-9-9-9-9-9-|7---7-7-7-7-7-7-|7-7-7-7-7-7-7-7-|
E  :7-7-7-7-7-7-7-7-|7-7-7-7-7-7-7-7-|5---5-5-5-5-5-5-|5-5-5-5-5-5-5-5-|

E  :----------------|----------------|----------------|----------------|
B  :----------------|----------------|----------------|----------------|
G  :----------------|7-*-7-*-9-*-9-*-|----------------|----------------|
D  :5---5-5-5-5-5-5-|7---7---9---9---|7---7-7-7-7-7-7-|7-7-7-7-7-7-7-7-|
A  :5---5-5-5-5-5-5-|5-*-5-*-7-*-7-*-|7---7-7-7-7-7-7-|7-7-7-7-7-7-7-7-|
E  :3---3-3-3-3-3-3-|----------------|5---5-5-5-5-5-5-|5-5-5-5-5-5-5-5-|

E  :----------------|----------------|----------------|----------------|
B  :----------------|----------------|----------------|----------------|
G  :----------------|7-*-7-*-9-*-9-*-|----------------|----------------|
D  :5---5-5-5-5-5-5-|7---7---9---9---|7---7-7-7-7-7-7-|7-7-7-7-7-7-7-7-|
A  :5---5-5-5-5-5-5-|5-*-5-*-7-*-7-*-|7---7-7-7-7-7-7-|7-7-7-7-7-7-7-7-|
E  :3---3-3-3-3-3-3-|----------------|5---5-5-5-5-5-5-|5-5-5-5-5-5-5-5-|

E  :----------------|----------------|----------------|----------------|
B  :----------------|----------------|----------------|----------------|
G  :----------------|7-*-7-*-9-*-9-*-|----------------|----------------|
D  :5---5-5-5-5-5-5-|7---7---9---9---|7---7-7-7-7-7-7-|7-7-7-7-7-7-7-7-|
A  :5---5-5-5-5-5-5-|5-*-5-*-7-*-7-*-|7---7-7-7-7-7-7-|7-7-7-7-7-7-7-7-|
E  :3---3-3-3-3-3-3-|----------------|5---5-5-5-5-5-5-|5-5-5-5-5-5-5-5-|

E  :----------------|----------------|----------------|----------------|
B  :----------------|----------------|----------------|----------------|
G  :----------------|7-*-7-*-9-*-9-*-|----------------|----------------|
D  :5---5-5-5-5-5-5-|7---7---9---9---|7---7-7-7-7-7-7-|7-7-7-7-7-7-7-7-|
A  :5---5-5-5-5-5-5-|5-*-5-*-7-*-7-*-|7---7-7-7-7-7-7-|7-7-7-7-7-7-7-7-|
E  :3---3-3-3-3-3-3-|----------------|5---5-5-5-5-5-5-|5-5-5-5-5-5-5-5-|

E  :----------------|----------------|----------------|----------------|
B  :----------------|----------------|----------------|----------------|
G  :----------------|7-*-7-*-9-*-9-*-|----------------|----------------|
D  :5---5-5-5-5-5-5-|7---7---9---9---|7---7-7-7-7-7-7-|7-7-7-7-7-7-7-7-|
A  :5---5-5-5-5-5-5-|5-*-5-*-7-*-7-*-|7---7-7-7-7-7-7-|7-7-7-7-7-7-7-7-|
E  :3---3-3-3-3-3-3-|----------------|5---5-5-5-5-5-5-|5-5-5-5-5-5-5-5-|

E  :----------------|----------------|----------------|----------------|
B  :----------------|----------------|----------------|----------------|
G  :----------------|7-*-7-*-9-*-9-*-|----------------|----------------|
D  :5---5-5-5-5-5-5-|7---7---9---9---|7---7-7-7-7-7-7-|7-7-7-7-7-7-7-7-|
A  :5---5-5-5-5-5-5-|5-*-5-*-7-*-7-*-|7---7-7-7-7-7-7-|7-7-7-7-7-7-7-7-|
E  :3---3-3-3-3-3-3-|----------------|5---5-5-5-5-5-5-|5-5-5-5-5-5-5-5-|

E  :----------------|----------------|----------------|----------------|
B  :----------------|----------------|----------------|----------------|
G  :----------------|7-*-7-*-9-*-9-*-|----------------|----------------|
D  :5---5-5-5-5-5-5-|7---7---9---9---|7---7-7-7-7-7-7-|7-7-7-7-7-7-7-7-|
A  :5---5-5-5-5-5-5-|5-*-5-*-7-*-7-*-|7---7-7-7-7-7-7-|7-7-7-7-7-7-7-7-|
E  :3---3-3-3-3-3-3-|----------------|5---5-5-5-5-5-5-|5-5-5-5-5-5-5-5-|

E  :----------------|----------------|--------*-------|
B  :----------------|----------------|----------------|
G  :----------------|7-*-7-*-9-*-9-*-|--------*-------|
D  :5---5-5-5-5-5-5-|7---7---9---9---|7---------------|
A  :5---5-5-5-5-5-5-|5-*-5-*-7-*-7-*-|7-------*-------|
E  :3---3-3-3-3-3-3-|----------------|5-------*-------|
Comments